ISO-10303-21;
HEADER;
FILE_DESCRIPTION (( 'STEP AP203' ),
    '1' );
FILE_NAME ('36051.step',
    '2021-12-06T12:59:19',
    ( '' ),
    ( '' ),
    'SwSTEP 2.0',
    'SolidWorks 2019',
    '' );
FILE_SCHEMA (( 'CONFIG_CONTROL_DESIGN' ));
ENDSEC;

DATA;
#1 = MANIFOLD_SOLID_BREP ( 'Corps-Déplacer/Copier1', #12 ) ;
#2 = ORIENTED_EDGE ( 'NONE', *, *, #35, .T. ) ;
#3 = PLANE ( 'NONE',  #146 ) ;
#4 = PLANE ( 'NONE',  #38 ) ;
#5 = EDGE_CURVE ( 'NONE', #136, #136, #161, .T. ) ;
#6 = CALENDAR_DATE ( 2021, 6, 12 ) ;
#7 = SECURITY_CLASSIFICATION_LEVEL ( 'unclassified' ) ;
#8 = LOCAL_TIME ( 13, 59, 19.00000000000000000, #29 ) ;
#9 = FACE_OUTER_BOUND ( 'NONE', #150, .T. ) ;
#10 = CARTESIAN_POINT ( 'NONE',  ( -8.551662891793916512E-30, 2.999519565323715216E-31, -2.449293598294706513E-15 ) ) ;
#11 = DIRECTION ( 'NONE',  ( 3.491481338843133355E-15, -1.224646799147353207E-16, 1.000000000000000000 ) ) ;
#12 = CLOSED_SHELL ( 'NONE', ( #166, #36, #112, #27 ) ) ;
#13 = COORDINATED_UNIVERSAL_TIME_OFFSET ( 1, 0, .AHEAD. ) ;
#14 = PERSON_AND_ORGANIZATION ( #122, #49 ) ;
#15 = COORDINATED_UNIVERSAL_TIME_OFFSET ( 1, 0, .AHEAD. ) ;
#16 = DIRECTION ( 'NONE',  ( 1.000000000000000000, 0.0000000000000000000, 0.0000000000000000000 ) ) ;
#17 = CC_DESIGN_PERSON_AND_ORGANIZATION_ASSIGNMENT ( #56, #153, ( #128 ) ) ;
#18 = PERSON_AND_ORGANIZATION ( #122, #49 ) ;
#19 = AXIS2_PLACEMENT_3D ( 'NONE', #87, #20, #39 ) ;
#20 = DIRECTION ( 'NONE',  ( -3.491481338843133355E-15, 1.224646799147353207E-16, -1.000000000000000000 ) ) ;
#21 = LOCAL_TIME ( 13, 59, 19.00000000000000000, #164 ) ;
#22 = APPROVAL_PERSON_ORGANIZATION ( #81, #165, #55 ) ;
#23 = DESIGN_CONTEXT ( 'detailed design', #111, 'design' ) ;
#24 = VERTEX_POINT ( 'NONE', #66 ) ;
#25 = DIRECTION ( 'NONE',  ( 4.275831445896958607E-31, 1.000000000000000000, 1.224646799147353207E-16 ) ) ;
#26 = DIRECTION ( 'NONE',  ( -3.491481338843133355E-15, 1.224646799147353207E-16, -1.000000000000000000 ) ) ;
#27 = ADVANCED_FACE ( 'NONE', ( #65, #145 ), #62, .F. ) ;
#28 = EDGE_LOOP ( 'NONE', ( #148 ) ) ;
#29 = COORDINATED_UNIVERSAL_TIME_OFFSET ( 1, 0, .AHEAD. ) ;
#30 = PERSON_AND_ORGANIZATION_ROLE ( 'classification_officer' ) ;
#31 = AXIS2_PLACEMENT_3D ( 'NONE', #73, #64, #53 ) ;
#32 = DIRECTION ( 'NONE',  ( 0.0000000000000000000, 0.0000000000000000000, 1.000000000000000000 ) ) ;
#33 = PRODUCT ( '36051', '36051', '', ( #95 ) ) ;
#34 = LOCAL_TIME ( 13, 59, 19.00000000000000000, #13 ) ;
#35 = EDGE_CURVE ( 'NONE', #24, #24, #124, .T. ) ;
#36 = ADVANCED_FACE ( 'NONE', ( #102, #131 ), #89, .T. ) ;
#37 = EDGE_LOOP ( 'NONE', ( #159 ) ) ;
#38 = AXIS2_PLACEMENT_3D ( 'NONE', #147, #26, #41 ) ;
#39 = DIRECTION ( 'NONE',  ( 4.622231866529366047E-31, 1.000000000000000000, 1.301042606982605321E-16 ) ) ;
#40 = EDGE_LOOP ( 'NONE', ( #74 ) ) ;
#41 = DIRECTION ( 'NONE',  ( 4.275831445896958607E-31, 1.000000000000000000, 1.224646799147353207E-16 ) ) ;
#42 = CALENDAR_DATE ( 2021, 6, 12 ) ;
#43 = PERSON_AND_ORGANIZATION_ROLE ( 'creator' ) ;
#44 = PERSON_AND_ORGANIZATION ( #122, #49 ) ;
#45 = LOCAL_TIME ( 13, 59, 19.00000000000000000, #107 ) ;
#46 = CARTESIAN_POINT ( 'NONE',  ( 5.586370142149014157E-15, 20.00000000000000000, 1.600000000000000089 ) ) ;
#47 = PERSON_AND_ORGANIZATION ( #122, #49 ) ;
#48 = CIRCLE ( 'NONE', #31, 20.00000000000000000 ) ;
#49 = ORGANIZATION ( 'UNSPECIFIED', 'UNSPECIFIED', '' ) ;
#50 = EDGE_LOOP ( 'NONE', ( #157 ) ) ;
#51 = DIRECTION ( 'NONE',  ( 4.275831445896958607E-31, 1.000000000000000000, 1.224646799147353207E-16 ) ) ;
#52 = FACE_OUTER_BOUND ( 'NONE', #50, .T. ) ;
#53 = DIRECTION ( 'NONE',  ( 4.237045877651918877E-31, 1.000000000000000000, 1.192622389734054877E-16 ) ) ;
#54 = APPROVAL_DATE_TIME ( #82, #165 ) ;
#55 = APPROVAL_ROLE ( '' ) ;
#56 = PERSON_AND_ORGANIZATION ( #122, #49 ) ;
#57 = DATE_AND_TIME ( #6, #34 ) ;
#58 = EDGE_CURVE ( 'NONE', #120, #120, #155, .T. ) ;
#59 =( GEOMETRIC_REPRESENTATION_CONTEXT ( 3 ) GLOBAL_UNCERTAINTY_ASSIGNED_CONTEXT ( ( #132 ) ) GLOBAL_UNIT_ASSIGNED_CONTEXT ( ( #60, #162, #103 ) ) REPRESENTATION_CONTEXT ( 'NONE', 'WORKASPACE' ) );
#60 =( LENGTH_UNIT ( ) NAMED_UNIT ( * ) SI_UNIT ( .MILLI., .METRE. ) );
#61 = EDGE_CURVE ( 'NONE', #110, #110, #48, .T. ) ;
#62 = CYLINDRICAL_SURFACE ( 'NONE', #69, 5.000000000000000000 ) ;
#63 = DIRECTION ( 'NONE',  ( -3.491481338843133355E-15, 1.224646799147353207E-16, -1.000000000000000000 ) ) ;
#64 = DIRECTION ( 'NONE',  ( -3.491481338843133355E-15, 1.224646799147353207E-16, -1.000000000000000000 ) ) ;
#65 = FACE_OUTER_BOUND ( 'NONE', #40, .T. ) ;
#66 = CARTESIAN_POINT ( 'NONE',  ( 0.0000000000000000000, 20.00000000000000000, 0.0000000000000000000 ) ) ;
#67 = DATE_TIME_ROLE ( 'creation_date' ) ;
#68 = PERSON_AND_ORGANIZATION_ROLE ( 'design_owner' ) ;
#69 = AXIS2_PLACEMENT_3D ( 'NONE', #99, #63, #72 ) ;
#70 = CALENDAR_DATE ( 2021, 6, 12 ) ;
#71 = APPROVAL_DATE_TIME ( #84, #119 ) ;
#72 = DIRECTION ( 'NONE',  ( 4.275831445896958607E-31, 1.000000000000000000, 1.224646799147353207E-16 ) ) ;
#73 = CARTESIAN_POINT ( 'NONE',  ( 5.586370142149005480E-15, -1.959434878635762272E-16, 1.599999999999997646 ) ) ;
#74 = ORIENTED_EDGE ( 'NONE', *, *, #58, .T. ) ;
#75 = CC_DESIGN_PERSON_AND_ORGANIZATION_ASSIGNMENT ( #151, #126, ( #117 ) ) ;
#76 = DIRECTION ( 'NONE',  ( -3.491481338843133355E-15, 1.224646799147353207E-16, -1.000000000000000000 ) ) ;
#77 = EDGE_LOOP ( 'NONE', ( #100 ) ) ;
#78 = APPROVAL ( #121, 'UNSPECIFIED' ) ;
#79 = DATE_AND_TIME ( #96, #8 ) ;
#80 = CARTESIAN_POINT ( 'NONE',  ( 0.0000000000000000000, 0.0000000000000000000, 0.0000000000000000000 ) ) ;
#81 = PERSON_AND_ORGANIZATION ( #122, #49 ) ;
#82 = DATE_AND_TIME ( #42, #21 ) ;
#83 = CC_DESIGN_SECURITY_CLASSIFICATION ( #135, ( #117 ) ) ;
#84 = DATE_AND_TIME ( #70, #125 ) ;
#85 = CC_DESIGN_PERSON_AND_ORGANIZATION_ASSIGNMENT ( #44, #68, ( #33 ) ) ;
#86 = ORIENTED_EDGE ( 'NONE', *, *, #61, .T. ) ;
#87 = CARTESIAN_POINT ( 'NONE',  ( 5.586370142149011791E-15, -1.959434878635764491E-16, 1.599999999999999423 ) ) ;
#88 = DIRECTION ( 'NONE',  ( -3.491481338843133355E-15, 1.224646799147353207E-16, -1.000000000000000000 ) ) ;
#89 = CYLINDRICAL_SURFACE ( 'NONE', #127, 20.00000000000000000 ) ;
#90 = CARTESIAN_POINT ( 'NONE',  ( 0.0000000000000000000, 5.000000000000000000, 0.0000000000000000000 ) ) ;
#91 = APPROVAL_PERSON_ORGANIZATION ( #14, #119, #139 ) ;
#92 = APPROVAL_DATE_TIME ( #94, #78 ) ;
#93 = APPROVAL_STATUS ( 'not_yet_approved' ) ;
#94 = DATE_AND_TIME ( #140, #45 ) ;
#95 = MECHANICAL_CONTEXT ( 'NONE', #154, 'mechanical' ) ;
#96 = CALENDAR_DATE ( 2021, 6, 12 ) ;
#97 = AXIS2_PLACEMENT_3D ( 'NONE', #10, #76, #98 ) ;
#98 = DIRECTION ( 'NONE',  ( 4.275831445896958607E-31, 1.000000000000000000, 1.224646799147353207E-16 ) ) ;
#99 = CARTESIAN_POINT ( 'NONE',  ( 0.0000000000000000000, 0.0000000000000000000, 0.0000000000000000000 ) ) ;
#100 = ORIENTED_EDGE ( 'NONE', *, *, #58, .F. ) ;
#101 = FACE_BOUND ( 'NONE', #77, .T. ) ;
#102 = FACE_OUTER_BOUND ( 'NONE', #118, .T. ) ;
#103 =( NAMED_UNIT ( * ) SI_UNIT ( $, .STERADIAN. ) SOLID_ANGLE_UNIT ( ) );
#104 = APPROVAL_PERSON_ORGANIZATION ( #106, #78, #105 ) ;
#105 = APPROVAL_ROLE ( '' ) ;
#106 = PERSON_AND_ORGANIZATION ( #122, #49 ) ;
#107 = COORDINATED_UNIVERSAL_TIME_OFFSET ( 1, 0, .AHEAD. ) ;
#108 = AXIS2_PLACEMENT_3D ( 'NONE', #156, #114, #51 ) ;
#109 = PRODUCT_DEFINITION_SHAPE ( 'NONE', 'NONE',  #128 ) ;
#110 = VERTEX_POINT ( 'NONE', #46 ) ;
#111 = APPLICATION_CONTEXT ( 'configuration controlled 3d designs of mechanical parts and assemblies' ) ;
#112 = ADVANCED_FACE ( 'NONE', ( #134, #52 ), #3, .T. ) ;
#113 = CARTESIAN_POINT ( 'NONE',  ( 5.586370142149011002E-15, 5.000000000000000000, 1.599999999999999201 ) ) ;
#114 = DIRECTION ( 'NONE',  ( -3.491481338843133355E-15, 1.224646799147353207E-16, -1.000000000000000000 ) ) ;
#115 = EDGE_LOOP ( 'NONE', ( #133 ) ) ;
#116 = ADVANCED_BREP_SHAPE_REPRESENTATION ( '36051', ( #1, #129 ), #59 ) ;
#117 = PRODUCT_DEFINITION_FORMATION_WITH_SPECIFIED_SOURCE ( 'ANY', '', #33, .NOT_KNOWN. ) ;
#118 = EDGE_LOOP ( 'NONE', ( #86 ) ) ;
#119 = APPROVAL ( #93, 'UNSPECIFIED' ) ;
#120 = VERTEX_POINT ( 'NONE', #90 ) ;
#121 = APPROVAL_STATUS ( 'not_yet_approved' ) ;
#122 = PERSON ( 'UNSPECIFIED', 'UNSPECIFIED', 'UNSPECIFIED', ('UNSPECIFIED'), ('UNSPECIFIED'), ('UNSPECIFIED') ) ;
#123 = APPROVAL_STATUS ( 'not_yet_approved' ) ;
#124 = CIRCLE ( 'NONE', #97, 20.00000000000000000 ) ;
#125 = LOCAL_TIME ( 13, 59, 19.00000000000000000, #15 ) ;
#126 = PERSON_AND_ORGANIZATION_ROLE ( 'design_supplier' ) ;
#127 = AXIS2_PLACEMENT_3D ( 'NONE', #149, #88, #25 ) ;
#128 = PRODUCT_DEFINITION ( 'UNKNOWN', '', #117, #23 ) ;
#129 = AXIS2_PLACEMENT_3D ( 'NONE', #80, #32, #16 ) ;
#130 = CC_DESIGN_DATE_AND_TIME_ASSIGNMENT ( #79, #137, ( #135 ) ) ;
#131 = FACE_OUTER_BOUND ( 'NONE', #115, .T. ) ;
#132 = UNCERTAINTY_MEASURE_WITH_UNIT (LENGTH_MEASURE( 1.000000000000000082E-05 ), #60, 'distance_accuracy_value', 'NONE');
#133 = ORIENTED_EDGE ( 'NONE', *, *, #35, .F. ) ;
#134 = FACE_BOUND ( 'NONE', #28, .T. ) ;
#135 = SECURITY_CLASSIFICATION ( '', '', #7 ) ;
#136 = VERTEX_POINT ( 'NONE', #169 ) ;
#137 = DATE_TIME_ROLE ( 'classification_date' ) ;
#138 = PRODUCT_RELATED_PRODUCT_CATEGORY ( 'detail', '', ( #33 ) ) ;
#139 = APPROVAL_ROLE ( '' ) ;
#140 = CALENDAR_DATE ( 2021, 6, 12 ) ;
#141 = CC_DESIGN_APPROVAL ( #119, ( #135 ) ) ;
#142 = SHAPE_DEFINITION_REPRESENTATION ( #109, #116 ) ;
#143 = CC_DESIGN_PERSON_AND_ORGANIZATION_ASSIGNMENT ( #47, #30, ( #135 ) ) ;
#144 = CC_DESIGN_APPROVAL ( #78, ( #117 ) ) ;
#145 = FACE_OUTER_BOUND ( 'NONE', #37, .T. ) ;
#146 = AXIS2_PLACEMENT_3D ( 'NONE', #113, #11, #160 ) ;
#147 = CARTESIAN_POINT ( 'NONE',  ( -3.206873584422719743E-30, 5.000000000000000000, -9.184850993605149917E-16 ) ) ;
#148 = ORIENTED_EDGE ( 'NONE', *, *, #5, .T. ) ;
#149 = CARTESIAN_POINT ( 'NONE',  ( 0.0000000000000000000, 0.0000000000000000000, 0.0000000000000000000 ) ) ;
#150 = EDGE_LOOP ( 'NONE', ( #2 ) ) ;
#151 = PERSON_AND_ORGANIZATION ( #122, #49 ) ;
#152 = APPLICATION_PROTOCOL_DEFINITION ( 'international standard', 'config_control_design', 1994, #111 ) ;
#153 = PERSON_AND_ORGANIZATION_ROLE ( 'creator' ) ;
#154 = APPLICATION_CONTEXT ( 'configuration controlled 3d designs of mechanical parts and assemblies' ) ;
#155 = CIRCLE ( 'NONE', #108, 5.000000000000000000 ) ;
#156 = CARTESIAN_POINT ( 'NONE',  ( -2.137915722948479128E-30, 7.498798913309288039E-32, -6.123233995736766282E-16 ) ) ;
#157 = ORIENTED_EDGE ( 'NONE', *, *, #61, .F. ) ;
#158 = CC_DESIGN_PERSON_AND_ORGANIZATION_ASSIGNMENT ( #18, #43, ( #117 ) ) ;
#159 = ORIENTED_EDGE ( 'NONE', *, *, #5, .F. ) ;
#160 = DIRECTION ( 'NONE',  ( -4.275831445896958607E-31, -1.000000000000000000, -1.224646799147353207E-16 ) ) ;
#161 = CIRCLE ( 'NONE', #19, 5.000000000000000000 ) ;
#162 =( NAMED_UNIT ( * ) PLANE_ANGLE_UNIT ( ) SI_UNIT ( $, .RADIAN. ) );
#163 = APPLICATION_PROTOCOL_DEFINITION ( 'international standard', 'config_control_design', 1994, #154 ) ;
#164 = COORDINATED_UNIVERSAL_TIME_OFFSET ( 1, 0, .AHEAD. ) ;
#165 = APPROVAL ( #123, 'UNSPECIFIED' ) ;
#166 = ADVANCED_FACE ( 'NONE', ( #9, #101 ), #4, .T. ) ;
#167 = CC_DESIGN_DATE_AND_TIME_ASSIGNMENT ( #57, #67, ( #128 ) ) ;
#168 = CC_DESIGN_APPROVAL ( #165, ( #128 ) ) ;
#169 = CARTESIAN_POINT ( 'NONE',  ( 5.586370142149014157E-15, 5.000000000000000000, 1.600000000000000089 ) ) ;
ENDSEC;
END-ISO-10303-21;
