ISO-10303-21;
HEADER;
FILE_DESCRIPTION (( 'STEP AP203' ),
    '1' );
FILE_NAME ('36050.step',
    '2021-12-06T12:59:18',
    ( '' ),
    ( '' ),
    'SwSTEP 2.0',
    'SolidWorks 2019',
    '' );
FILE_SCHEMA (( 'CONFIG_CONTROL_DESIGN' ));
ENDSEC;

DATA;
#1 = APPROVAL_DATE_TIME ( #89, #28 ) ;
#2 = ORIENTED_EDGE ( 'NONE', *, *, #147, .T. ) ;
#3 = PERSON_AND_ORGANIZATION ( #43, #145 ) ;
#4 = EDGE_LOOP ( 'NONE', ( #122 ) ) ;
#5 = CC_DESIGN_PERSON_AND_ORGANIZATION_ASSIGNMENT ( #54, #104, ( #146 ) ) ;
#6 = CLOSED_SHELL ( 'NONE', ( #74, #70, #113, #107 ) ) ;
#7 = LOCAL_TIME ( 13, 59, 18.00000000000000000, #69 ) ;
#8 = AXIS2_PLACEMENT_3D ( 'NONE', #125, #35, #148 ) ;
#9 = EDGE_CURVE ( 'NONE', #167, #167, #132, .T. ) ;
#10 = DIRECTION ( 'NONE',  ( 0.0000000000000000000, 0.0000000000000000000, 1.000000000000000000 ) ) ;
#11 = CYLINDRICAL_SURFACE ( 'NONE', #103, 5.000000000000000000 ) ;
#12 = APPROVAL_PERSON_ORGANIZATION ( #79, #71, #138 ) ;
#13 = CC_DESIGN_APPROVAL ( #28, ( #120 ) ) ;
#14 = PLANE ( 'NONE',  #83 ) ;
#15 = DATE_TIME_ROLE ( 'classification_date' ) ;
#16 = EDGE_LOOP ( 'NONE', ( #56 ) ) ;
#17 = MECHANICAL_CONTEXT ( 'NONE', #100, 'mechanical' ) ;
#18 = ORIENTED_EDGE ( 'NONE', *, *, #147, .F. ) ;
#19 = CARTESIAN_POINT ( 'NONE',  ( 0.0000000000000000000, 20.00000000000000000, 0.0000000000000000000 ) ) ;
#20 = FACE_BOUND ( 'NONE', #164, .T. ) ;
#21 = DIRECTION ( 'NONE',  ( -3.491481338843133355E-15, 1.224646799147353207E-16, -1.000000000000000000 ) ) ;
#22 = SHAPE_DEFINITION_REPRESENTATION ( #58, #50 ) ;
#23 = CYLINDRICAL_SURFACE ( 'NONE', #137, 20.00000000000000000 ) ;
#24 = DESIGN_CONTEXT ( 'detailed design', #153, 'design' ) ;
#25 = FACE_OUTER_BOUND ( 'NONE', #117, .T. ) ;
#26 = DATE_AND_TIME ( #76, #7 ) ;
#27 = DATE_TIME_ROLE ( 'creation_date' ) ;
#28 = APPROVAL ( #66, 'UNSPECIFIED' ) ;
#29 = ORIENTED_EDGE ( 'NONE', *, *, #133, .T. ) ;
#30 =( NAMED_UNIT ( * ) PLANE_ANGLE_UNIT ( ) SI_UNIT ( $, .RADIAN. ) );
#31 = PRODUCT ( '36050', '36050', '', ( #17 ) ) ;
#32 = CARTESIAN_POINT ( 'NONE',  ( -3.206873584422719743E-30, 5.000000000000000000, -9.184850993605149917E-16 ) ) ;
#33 = CC_DESIGN_DATE_AND_TIME_ASSIGNMENT ( #140, #15, ( #120 ) ) ;
#34 = PERSON_AND_ORGANIZATION ( #43, #145 ) ;
#35 = DIRECTION ( 'NONE',  ( -3.491481338843133355E-15, 1.224646799147353207E-16, -1.000000000000000000 ) ) ;
#36 = DIRECTION ( 'NONE',  ( 4.275831445896958607E-31, 1.000000000000000000, 1.224646799147353207E-16 ) ) ;
#37 = AXIS2_PLACEMENT_3D ( 'NONE', #158, #51, #169 ) ;
#38 = CC_DESIGN_APPROVAL ( #57, ( #146 ) ) ;
#39 = DATE_AND_TIME ( #157, #112 ) ;
#40 = APPROVAL_ROLE ( '' ) ;
#41 = PERSON_AND_ORGANIZATION_ROLE ( 'creator' ) ;
#42 = EDGE_LOOP ( 'NONE', ( #143 ) ) ;
#43 = PERSON ( 'UNSPECIFIED', 'UNSPECIFIED', 'UNSPECIFIED', ('UNSPECIFIED'), ('UNSPECIFIED'), ('UNSPECIFIED') ) ;
#44 =( NAMED_UNIT ( * ) SI_UNIT ( $, .STERADIAN. ) SOLID_ANGLE_UNIT ( ) );
#45 = APPROVAL_PERSON_ORGANIZATION ( #131, #57, #40 ) ;
#46 = VERTEX_POINT ( 'NONE', #102 ) ;
#47 = CARTESIAN_POINT ( 'NONE',  ( 5.237222008264700033E-15, 20.00000000000000000, 1.500000000000000000 ) ) ;
#48 = MANIFOLD_SOLID_BREP ( 'Corps-Déplacer/Copier1', #6 ) ;
#49 = COORDINATED_UNIVERSAL_TIME_OFFSET ( 1, 0, .AHEAD. ) ;
#50 = ADVANCED_BREP_SHAPE_REPRESENTATION ( '36050', ( #48, #84 ), #98 ) ;
#51 = DIRECTION ( 'NONE',  ( 3.491481338843133355E-15, -1.224646799147353207E-16, 1.000000000000000000 ) ) ;
#52 = COORDINATED_UNIVERSAL_TIME_OFFSET ( 1, 0, .AHEAD. ) ;
#53 = APPROVAL_PERSON_ORGANIZATION ( #34, #28, #119 ) ;
#54 = PERSON_AND_ORGANIZATION ( #43, #145 ) ;
#55 = EDGE_LOOP ( 'NONE', ( #90 ) ) ;
#56 = ORIENTED_EDGE ( 'NONE', *, *, #161, .T. ) ;
#57 = APPROVAL ( #127, 'UNSPECIFIED' ) ;
#58 = PRODUCT_DEFINITION_SHAPE ( 'NONE', 'NONE',  #101 ) ;
#59 = PRODUCT_RELATED_PRODUCT_CATEGORY ( 'detail', '', ( #31 ) ) ;
#60 = CARTESIAN_POINT ( 'NONE',  ( 0.0000000000000000000, 5.000000000000000000, 0.0000000000000000000 ) ) ;
#61 = PERSON_AND_ORGANIZATION_ROLE ( 'design_owner' ) ;
#62 = COORDINATED_UNIVERSAL_TIME_OFFSET ( 1, 0, .AHEAD. ) ;
#63 = EDGE_LOOP ( 'NONE', ( #18 ) ) ;
#64 = PERSON_AND_ORGANIZATION ( #43, #145 ) ;
#65 = DIRECTION ( 'NONE',  ( 4.275831445896958607E-31, 1.000000000000000000, 1.224646799147353207E-16 ) ) ;
#66 = APPROVAL_STATUS ( 'not_yet_approved' ) ;
#67 = FACE_OUTER_BOUND ( 'NONE', #63, .T. ) ;
#68 = LOCAL_TIME ( 13, 59, 18.00000000000000000, #49 ) ;
#69 = COORDINATED_UNIVERSAL_TIME_OFFSET ( 1, 0, .AHEAD. ) ;
#70 = ADVANCED_FACE ( 'NONE', ( #126, #67 ), #23, .T. ) ;
#71 = APPROVAL ( #108, 'UNSPECIFIED' ) ;
#72 =( LENGTH_UNIT ( ) NAMED_UNIT ( * ) SI_UNIT ( .MILLI., .METRE. ) );
#73 = AXIS2_PLACEMENT_3D ( 'NONE', #159, #149, #136 ) ;
#74 = ADVANCED_FACE ( 'NONE', ( #25, #20 ), #14, .T. ) ;
#75 = DIRECTION ( 'NONE',  ( 4.237045877651918877E-31, 1.000000000000000000, 1.192622389734054877E-16 ) ) ;
#76 = CALENDAR_DATE ( 2021, 6, 12 ) ;
#77 = CARTESIAN_POINT ( 'NONE',  ( 0.0000000000000000000, 0.0000000000000000000, 0.0000000000000000000 ) ) ;
#78 = CIRCLE ( 'NONE', #8, 5.000000000000000000 ) ;
#79 = PERSON_AND_ORGANIZATION ( #43, #145 ) ;
#80 = FACE_OUTER_BOUND ( 'NONE', #4, .T. ) ;
#81 = APPLICATION_PROTOCOL_DEFINITION ( 'international standard', 'config_control_design', 1994, #153 ) ;
#82 = PERSON_AND_ORGANIZATION_ROLE ( 'creator' ) ;
#83 = AXIS2_PLACEMENT_3D ( 'NONE', #32, #88, #65 ) ;
#84 = AXIS2_PLACEMENT_3D ( 'NONE', #168, #10, #91 ) ;
#85 = DIRECTION ( 'NONE',  ( -3.491481338843133355E-15, 1.224646799147353207E-16, -1.000000000000000000 ) ) ;
#86 = CC_DESIGN_DATE_AND_TIME_ASSIGNMENT ( #160, #27, ( #101 ) ) ;
#87 = CARTESIAN_POINT ( 'NONE',  ( 0.0000000000000000000, 0.0000000000000000000, 0.0000000000000000000 ) ) ;
#88 = DIRECTION ( 'NONE',  ( -3.491481338843133355E-15, 1.224646799147353207E-16, -1.000000000000000000 ) ) ;
#89 = DATE_AND_TIME ( #155, #97 ) ;
#90 = ORIENTED_EDGE ( 'NONE', *, *, #161, .F. ) ;
#91 = DIRECTION ( 'NONE',  ( 1.000000000000000000, 0.0000000000000000000, 0.0000000000000000000 ) ) ;
#92 = FACE_BOUND ( 'NONE', #95, .T. ) ;
#93 = SECURITY_CLASSIFICATION_LEVEL ( 'unclassified' ) ;
#94 = PERSON_AND_ORGANIZATION ( #43, #145 ) ;
#95 = EDGE_LOOP ( 'NONE', ( #29 ) ) ;
#96 = AXIS2_PLACEMENT_3D ( 'NONE', #163, #85, #75 ) ;
#97 = LOCAL_TIME ( 13, 59, 18.00000000000000000, #62 ) ;
#98 =( GEOMETRIC_REPRESENTATION_CONTEXT ( 3 ) GLOBAL_UNCERTAINTY_ASSIGNED_CONTEXT ( ( #154 ) ) GLOBAL_UNIT_ASSIGNED_CONTEXT ( ( #72, #30, #44 ) ) REPRESENTATION_CONTEXT ( 'NONE', 'WORKASPACE' ) );
#99 = CC_DESIGN_APPROVAL ( #71, ( #101 ) ) ;
#100 = APPLICATION_CONTEXT ( 'configuration controlled 3d designs of mechanical parts and assemblies' ) ;
#101 = PRODUCT_DEFINITION ( 'UNKNOWN', '', #146, #24 ) ;
#102 = CARTESIAN_POINT ( 'NONE',  ( 5.237222008264700033E-15, 5.000000000000000000, 1.500000000000000000 ) ) ;
#103 = AXIS2_PLACEMENT_3D ( 'NONE', #77, #156, #36 ) ;
#104 = PERSON_AND_ORGANIZATION_ROLE ( 'design_supplier' ) ;
#105 = ORIENTED_EDGE ( 'NONE', *, *, #9, .F. ) ;
#106 = CARTESIAN_POINT ( 'NONE',  ( -8.551662891793916512E-30, 2.999519565323715216E-31, -2.449293598294706513E-15 ) ) ;
#107 = ADVANCED_FACE ( 'NONE', ( #135, #80 ), #11, .F. ) ;
#108 = APPROVAL_STATUS ( 'not_yet_approved' ) ;
#109 = CC_DESIGN_SECURITY_CLASSIFICATION ( #120, ( #146 ) ) ;
#110 = PLANE ( 'NONE',  #37 ) ;
#111 = CIRCLE ( 'NONE', #96, 20.00000000000000000 ) ;
#112 = LOCAL_TIME ( 13, 59, 18.00000000000000000, #141 ) ;
#113 = ADVANCED_FACE ( 'NONE', ( #92, #139 ), #110, .T. ) ;
#114 = CC_DESIGN_PERSON_AND_ORGANIZATION_ASSIGNMENT ( #94, #115, ( #120 ) ) ;
#115 = PERSON_AND_ORGANIZATION_ROLE ( 'classification_officer' ) ;
#116 = VERTEX_POINT ( 'NONE', #19 ) ;
#117 = EDGE_LOOP ( 'NONE', ( #2 ) ) ;
#118 = CALENDAR_DATE ( 2021, 6, 12 ) ;
#119 = APPROVAL_ROLE ( '' ) ;
#120 = SECURITY_CLASSIFICATION ( '', '', #93 ) ;
#121 = PERSON_AND_ORGANIZATION ( #43, #145 ) ;
#122 = ORIENTED_EDGE ( 'NONE', *, *, #133, .F. ) ;
#123 = CIRCLE ( 'NONE', #165, 20.00000000000000000 ) ;
#124 = VERTEX_POINT ( 'NONE', #47 ) ;
#125 = CARTESIAN_POINT ( 'NONE',  ( 5.237222008264697666E-15, -1.836970198721029194E-16, 1.499999999999999334 ) ) ;
#126 = FACE_OUTER_BOUND ( 'NONE', #16, .T. ) ;
#127 = APPROVAL_STATUS ( 'not_yet_approved' ) ;
#128 = APPROVAL_DATE_TIME ( #26, #71 ) ;
#129 = CC_DESIGN_PERSON_AND_ORGANIZATION_ASSIGNMENT ( #121, #61, ( #31 ) ) ;
#130 = APPROVAL_DATE_TIME ( #39, #57 ) ;
#131 = PERSON_AND_ORGANIZATION ( #43, #145 ) ;
#132 = CIRCLE ( 'NONE', #73, 5.000000000000000000 ) ;
#133 = EDGE_CURVE ( 'NONE', #46, #46, #78, .T. ) ;
#134 = DIRECTION ( 'NONE',  ( 4.275831445896958607E-31, 1.000000000000000000, 1.224646799147353207E-16 ) ) ;
#135 = FACE_OUTER_BOUND ( 'NONE', #42, .T. ) ;
#136 = DIRECTION ( 'NONE',  ( 4.275831445896958607E-31, 1.000000000000000000, 1.224646799147353207E-16 ) ) ;
#137 = AXIS2_PLACEMENT_3D ( 'NONE', #87, #21, #134 ) ;
#138 = APPROVAL_ROLE ( '' ) ;
#139 = FACE_OUTER_BOUND ( 'NONE', #55, .T. ) ;
#140 = DATE_AND_TIME ( #151, #68 ) ;
#141 = COORDINATED_UNIVERSAL_TIME_OFFSET ( 1, 0, .AHEAD. ) ;
#142 = APPLICATION_PROTOCOL_DEFINITION ( 'international standard', 'config_control_design', 1994, #100 ) ;
#143 = ORIENTED_EDGE ( 'NONE', *, *, #9, .T. ) ;
#144 = CC_DESIGN_PERSON_AND_ORGANIZATION_ASSIGNMENT ( #64, #82, ( #101 ) ) ;
#145 = ORGANIZATION ( 'UNSPECIFIED', 'UNSPECIFIED', '' ) ;
#146 = PRODUCT_DEFINITION_FORMATION_WITH_SPECIFIED_SOURCE ( 'ANY', '', #31, .NOT_KNOWN. ) ;
#147 = EDGE_CURVE ( 'NONE', #116, #116, #123, .T. ) ;
#148 = DIRECTION ( 'NONE',  ( 4.622231866529366047E-31, 1.000000000000000000, 1.301042606982605321E-16 ) ) ;
#149 = DIRECTION ( 'NONE',  ( -3.491481338843133355E-15, 1.224646799147353207E-16, -1.000000000000000000 ) ) ;
#150 = DIRECTION ( 'NONE',  ( -3.491481338843133355E-15, 1.224646799147353207E-16, -1.000000000000000000 ) ) ;
#151 = CALENDAR_DATE ( 2021, 6, 12 ) ;
#152 = DIRECTION ( 'NONE',  ( 4.275831445896958607E-31, 1.000000000000000000, 1.224646799147353207E-16 ) ) ;
#153 = APPLICATION_CONTEXT ( 'configuration controlled 3d designs of mechanical parts and assemblies' ) ;
#154 = UNCERTAINTY_MEASURE_WITH_UNIT (LENGTH_MEASURE( 1.000000000000000082E-05 ), #72, 'distance_accuracy_value', 'NONE');
#155 = CALENDAR_DATE ( 2021, 6, 12 ) ;
#156 = DIRECTION ( 'NONE',  ( -3.491481338843133355E-15, 1.224646799147353207E-16, -1.000000000000000000 ) ) ;
#157 = CALENDAR_DATE ( 2021, 6, 12 ) ;
#158 = CARTESIAN_POINT ( 'NONE',  ( 5.237222008264696877E-15, 5.000000000000000000, 1.499999999999999112 ) ) ;
#159 = CARTESIAN_POINT ( 'NONE',  ( -2.137915722948479128E-30, 7.498798913309288039E-32, -6.123233995736766282E-16 ) ) ;
#160 = DATE_AND_TIME ( #118, #166 ) ;
#161 = EDGE_CURVE ( 'NONE', #124, #124, #111, .T. ) ;
#162 = CC_DESIGN_PERSON_AND_ORGANIZATION_ASSIGNMENT ( #3, #41, ( #146 ) ) ;
#163 = CARTESIAN_POINT ( 'NONE',  ( 5.237222008264691355E-15, -1.836970198721026976E-16, 1.499999999999997558 ) ) ;
#164 = EDGE_LOOP ( 'NONE', ( #105 ) ) ;
#165 = AXIS2_PLACEMENT_3D ( 'NONE', #106, #150, #152 ) ;
#166 = LOCAL_TIME ( 13, 59, 18.00000000000000000, #52 ) ;
#167 = VERTEX_POINT ( 'NONE', #60 ) ;
#168 = CARTESIAN_POINT ( 'NONE',  ( 0.0000000000000000000, 0.0000000000000000000, 0.0000000000000000000 ) ) ;
#169 = DIRECTION ( 'NONE',  ( -4.275831445896958607E-31, -1.000000000000000000, -1.224646799147353207E-16 ) ) ;
ENDSEC;
END-ISO-10303-21;
