ISO-10303-21;
HEADER;
FILE_DESCRIPTION (( 'STEP AP203' ),
    '1' );
FILE_NAME ('36049.step',
    '2021-12-06T12:59:17',
    ( '' ),
    ( '' ),
    'SwSTEP 2.0',
    'SolidWorks 2019',
    '' );
FILE_SCHEMA (( 'CONFIG_CONTROL_DESIGN' ));
ENDSEC;

DATA;
#1 = CALENDAR_DATE ( 2021, 6, 12 ) ;
#2 = DATE_AND_TIME ( #144, #116 ) ;
#3 = ADVANCED_FACE ( 'NONE', ( #30, #152 ), #76, .T. ) ;
#4 = FACE_OUTER_BOUND ( 'NONE', #20, .T. ) ;
#5 = CC_DESIGN_PERSON_AND_ORGANIZATION_ASSIGNMENT ( #115, #155, ( #51 ) ) ;
#6 = PLANE ( 'NONE',  #37 ) ;
#7 = DIRECTION ( 'NONE',  ( -3.491481338843133355E-15, 3.061616997868383634E-17, -1.000000000000000000 ) ) ;
#8 = CC_DESIGN_PERSON_AND_ORGANIZATION_ASSIGNMENT ( #41, #13, ( #19 ) ) ;
#9 = CARTESIAN_POINT ( 'NONE',  ( 0.0000000000000000000, 0.0000000000000000000, 0.0000000000000000000 ) ) ;
#10 = DATE_AND_TIME ( #1, #61 ) ;
#11 = APPROVAL_STATUS ( 'not_yet_approved' ) ;
#12 = CLOSED_SHELL ( 'NONE', ( #3, #111, #136, #66 ) ) ;
#13 = PERSON_AND_ORGANIZATION_ROLE ( 'design_owner' ) ;
#14 = PRODUCT_RELATED_PRODUCT_CATEGORY ( 'detail', '', ( #19 ) ) ;
#15 = AXIS2_PLACEMENT_3D ( 'NONE', #21, #7, #58 ) ;
#16 = APPROVAL_ROLE ( '' ) ;
#17 = CIRCLE ( 'NONE', #106, 5.000000000000000888 ) ;
#18 = APPROVAL ( #11, 'UNSPECIFIED' ) ;
#19 = PRODUCT ( '36049', '36049', '', ( #86 ) ) ;
#20 = EDGE_LOOP ( 'NONE', ( #119 ) ) ;
#21 = CARTESIAN_POINT ( 'NONE',  ( 0.0000000000000000000, 0.0000000000000000000, 0.0000000000000000000 ) ) ;
#22 = AXIS2_PLACEMENT_3D ( 'NONE', #72, #98, #93 ) ;
#23 = CC_DESIGN_PERSON_AND_ORGANIZATION_ASSIGNMENT ( #95, #131, ( #105 ) ) ;
#24 = SHAPE_DEFINITION_REPRESENTATION ( #101, #156 ) ;
#25 = COORDINATED_UNIVERSAL_TIME_OFFSET ( 1, 0, .AHEAD. ) ;
#26 = CARTESIAN_POINT ( 'NONE',  ( 0.0000000000000000000, 5.000000000000000000, 0.0000000000000000000 ) ) ;
#27 = CIRCLE ( 'NONE', #129, 20.00000000000000000 ) ;
#28 = DATE_AND_TIME ( #112, #154 ) ;
#29 = EDGE_LOOP ( 'NONE', ( #32 ) ) ;
#30 = FACE_OUTER_BOUND ( 'NONE', #29, .T. ) ;
#31 = EDGE_LOOP ( 'NONE', ( #148 ) ) ;
#32 = ORIENTED_EDGE ( 'NONE', *, *, #74, .T. ) ;
#33 =( GEOMETRIC_REPRESENTATION_CONTEXT ( 3 ) GLOBAL_UNCERTAINTY_ASSIGNED_CONTEXT ( ( #62 ) ) GLOBAL_UNIT_ASSIGNED_CONTEXT ( ( #99, #82, #54 ) ) REPRESENTATION_CONTEXT ( 'NONE', 'WORKASPACE' ) );
#34 = CYLINDRICAL_SURFACE ( 'NONE', #127, 5.000000000000000888 ) ;
#35 = CARTESIAN_POINT ( 'NONE',  ( -8.017183961056801109E-31, 5.000000000000000000, -2.296212748401287972E-16 ) ) ;
#36 = VERTEX_POINT ( 'NONE', #26 ) ;
#37 = AXIS2_PLACEMENT_3D ( 'NONE', #164, #48, #151 ) ;
#38 = PERSON_AND_ORGANIZATION_ROLE ( 'design_supplier' ) ;
#39 = AXIS2_PLACEMENT_3D ( 'NONE', #161, #118, #165 ) ;
#40 = APPLICATION_PROTOCOL_DEFINITION ( 'international standard', 'config_control_design', 1994, #160 ) ;
#41 = PERSON_AND_ORGANIZATION ( #64, #77 ) ;
#42 = ORIENTED_EDGE ( 'NONE', *, *, #104, .T. ) ;
#43 = EDGE_LOOP ( 'NONE', ( #42 ) ) ;
#44 = CC_DESIGN_DATE_AND_TIME_ASSIGNMENT ( #10, #113, ( #105 ) ) ;
#45 = CARTESIAN_POINT ( 'NONE',  ( 4.189777606611756871E-15, -3.673940397442057649E-17, 1.199999999999999067 ) ) ;
#46 = EDGE_LOOP ( 'NONE', ( #122 ) ) ;
#47 = CC_DESIGN_APPROVAL ( #81, ( #105 ) ) ;
#48 = DIRECTION ( 'NONE',  ( 3.491481338843133355E-15, -3.061616997868383634E-17, 1.000000000000000000 ) ) ;
#49 = DATE_AND_TIME ( #123, #146 ) ;
#50 = APPROVAL_STATUS ( 'not_yet_approved' ) ;
#51 = PRODUCT_DEFINITION ( 'UNKNOWN', '', #139, #128 ) ;
#52 = PERSON_AND_ORGANIZATION ( #64, #77 ) ;
#53 = CC_DESIGN_PERSON_AND_ORGANIZATION_ASSIGNMENT ( #63, #166, ( #139 ) ) ;
#54 =( NAMED_UNIT ( * ) SI_UNIT ( $, .STERADIAN. ) SOLID_ANGLE_UNIT ( ) );
#55 = CARTESIAN_POINT ( 'NONE',  ( 4.189777606611758449E-15, 20.00000000000000000, 1.199999999999999734 ) ) ;
#56 = LOCAL_TIME ( 13, 59, 17.00000000000000000, #126 ) ;
#57 = CYLINDRICAL_SURFACE ( 'NONE', #15, 20.00000000000000000 ) ;
#58 = DIRECTION ( 'NONE',  ( 1.068957861474239652E-31, 1.000000000000000000, 3.061616997868383634E-17 ) ) ;
#59 = COORDINATED_UNIVERSAL_TIME_OFFSET ( 1, 0, .AHEAD. ) ;
#60 = COORDINATED_UNIVERSAL_TIME_OFFSET ( 1, 0, .AHEAD. ) ;
#61 = LOCAL_TIME ( 13, 59, 17.00000000000000000, #114 ) ;
#62 = UNCERTAINTY_MEASURE_WITH_UNIT (LENGTH_MEASURE( 1.000000000000000082E-05 ), #99, 'distance_accuracy_value', 'NONE');
#63 = PERSON_AND_ORGANIZATION ( #64, #77 ) ;
#64 = PERSON ( 'UNSPECIFIED', 'UNSPECIFIED', 'UNSPECIFIED', ('UNSPECIFIED'), ('UNSPECIFIED'), ('UNSPECIFIED') ) ;
#65 = APPROVAL_PERSON_ORGANIZATION ( #169, #18, #143 ) ;
#66 = ADVANCED_FACE ( 'NONE', ( #109, #91 ), #34, .F. ) ;
#67 = DIRECTION ( 'NONE',  ( -3.491481338843133355E-15, 3.061616997868383634E-17, -1.000000000000000000 ) ) ;
#68 = FACE_OUTER_BOUND ( 'NONE', #70, .T. ) ;
#69 = CC_DESIGN_PERSON_AND_ORGANIZATION_ASSIGNMENT ( #52, #38, ( #139 ) ) ;
#70 = EDGE_LOOP ( 'NONE', ( #159 ) ) ;
#71 = CARTESIAN_POINT ( 'NONE',  ( 0.0000000000000000000, 20.00000000000000000, 0.0000000000000000000 ) ) ;
#72 = CARTESIAN_POINT ( 'NONE',  ( 0.0000000000000000000, 0.0000000000000000000, 0.0000000000000000000 ) ) ;
#73 = DATE_AND_TIME ( #110, #56 ) ;
#74 = EDGE_CURVE ( 'NONE', #142, #142, #125, .T. ) ;
#75 = DIRECTION ( 'NONE',  ( -3.491481338843133355E-15, 3.061616997868383634E-17, -1.000000000000000000 ) ) ;
#76 = PLANE ( 'NONE',  #102 ) ;
#77 = ORGANIZATION ( 'UNSPECIFIED', 'UNSPECIFIED', '' ) ;
#78 = DIRECTION ( 'NONE',  ( 1.068957861474239871E-31, 1.000000000000000000, 3.061616997868384251E-17 ) ) ;
#79 = PERSON_AND_ORGANIZATION ( #64, #77 ) ;
#80 = FACE_OUTER_BOUND ( 'NONE', #31, .T. ) ;
#81 = APPROVAL ( #50, 'UNSPECIFIED' ) ;
#82 =( NAMED_UNIT ( * ) PLANE_ANGLE_UNIT ( ) SI_UNIT ( $, .RADIAN. ) );
#83 = APPROVAL_PERSON_ORGANIZATION ( #79, #81, #167 ) ;
#84 = APPROVAL_STATUS ( 'not_yet_approved' ) ;
#85 = APPROVAL_DATE_TIME ( #28, #18 ) ;
#86 = MECHANICAL_CONTEXT ( 'NONE', #160, 'mechanical' ) ;
#87 = EDGE_LOOP ( 'NONE', ( #147 ) ) ;
#88 = APPLICATION_CONTEXT ( 'configuration controlled 3d designs of mechanical parts and assemblies' ) ;
#89 = DIRECTION ( 'NONE',  ( 1.068957861474239871E-31, 1.000000000000000000, 3.061616997868383634E-17 ) ) ;
#90 = CC_DESIGN_APPROVAL ( #96, ( #139 ) ) ;
#91 = FACE_OUTER_BOUND ( 'NONE', #87, .T. ) ;
#92 = APPROVAL_DATE_TIME ( #49, #81 ) ;
#93 = DIRECTION ( 'NONE',  ( 1.000000000000000000, 0.0000000000000000000, 0.0000000000000000000 ) ) ;
#94 = AXIS2_PLACEMENT_3D ( 'NONE', #103, #138, #121 ) ;
#95 = PERSON_AND_ORGANIZATION ( #64, #77 ) ;
#96 = APPROVAL ( #84, 'UNSPECIFIED' ) ;
#97 = VERTEX_POINT ( 'NONE', #55 ) ;
#98 = DIRECTION ( 'NONE',  ( 0.0000000000000000000, 0.0000000000000000000, 1.000000000000000000 ) ) ;
#99 =( LENGTH_UNIT ( ) NAMED_UNIT ( * ) SI_UNIT ( .MILLI., .METRE. ) );
#100 = EDGE_CURVE ( 'NONE', #145, #145, #17, .T. ) ;
#101 = PRODUCT_DEFINITION_SHAPE ( 'NONE', 'NONE',  #51 ) ;
#102 = AXIS2_PLACEMENT_3D ( 'NONE', #35, #75, #89 ) ;
#103 = CARTESIAN_POINT ( 'NONE',  ( -2.137915722948479478E-30, 1.874699728327322831E-32, -6.123233995736767268E-16 ) ) ;
#104 = EDGE_CURVE ( 'NONE', #36, #36, #141, .T. ) ;
#105 = SECURITY_CLASSIFICATION ( '', '', #124 ) ;
#106 = AXIS2_PLACEMENT_3D ( 'NONE', #137, #67, #140 ) ;
#107 = DIRECTION ( 'NONE',  ( -3.491481338843133355E-15, 3.061616997868383634E-17, -1.000000000000000000 ) ) ;
#108 = DIRECTION ( 'NONE',  ( 1.155557966632341512E-31, 1.000000000000000000, 3.252606517456513302E-17 ) ) ;
#109 = FACE_OUTER_BOUND ( 'NONE', #43, .T. ) ;
#110 = CALENDAR_DATE ( 2021, 6, 12 ) ;
#111 = ADVANCED_FACE ( 'NONE', ( #4, #80 ), #57, .T. ) ;
#112 = CALENDAR_DATE ( 2021, 6, 12 ) ;
#113 = DATE_TIME_ROLE ( 'classification_date' ) ;
#114 = COORDINATED_UNIVERSAL_TIME_OFFSET ( 1, 0, .AHEAD. ) ;
#115 = PERSON_AND_ORGANIZATION ( #64, #77 ) ;
#116 = LOCAL_TIME ( 13, 59, 17.00000000000000000, #60 ) ;
#117 = EDGE_CURVE ( 'NONE', #97, #97, #27, .T. ) ;
#118 = DIRECTION ( 'NONE',  ( -3.491481338843133355E-15, 3.061616997868383634E-17, -1.000000000000000000 ) ) ;
#119 = ORIENTED_EDGE ( 'NONE', *, *, #117, .T. ) ;
#120 = DIRECTION ( 'NONE',  ( -3.491481338843133355E-15, 3.061616997868383634E-17, -1.000000000000000000 ) ) ;
#121 = DIRECTION ( 'NONE',  ( 1.068957861474239652E-31, 1.000000000000000000, 3.061616997868383634E-17 ) ) ;
#122 = ORIENTED_EDGE ( 'NONE', *, *, #100, .T. ) ;
#123 = CALENDAR_DATE ( 2021, 6, 12 ) ;
#124 = SECURITY_CLASSIFICATION_LEVEL ( 'unclassified' ) ;
#125 = CIRCLE ( 'NONE', #94, 20.00000000000000000 ) ;
#126 = COORDINATED_UNIVERSAL_TIME_OFFSET ( 1, 0, .AHEAD. ) ;
#127 = AXIS2_PLACEMENT_3D ( 'NONE', #9, #120, #78 ) ;
#128 = DESIGN_CONTEXT ( 'detailed design', #88, 'design' ) ;
#129 = AXIS2_PLACEMENT_3D ( 'NONE', #45, #107, #108 ) ;
#130 = DATE_TIME_ROLE ( 'creation_date' ) ;
#131 = PERSON_AND_ORGANIZATION_ROLE ( 'classification_officer' ) ;
#132 = ORIENTED_EDGE ( 'NONE', *, *, #104, .F. ) ;
#133 = APPROVAL_PERSON_ORGANIZATION ( #158, #96, #16 ) ;
#134 = EDGE_LOOP ( 'NONE', ( #132 ) ) ;
#135 = CC_DESIGN_DATE_AND_TIME_ASSIGNMENT ( #2, #130, ( #51 ) ) ;
#136 = ADVANCED_FACE ( 'NONE', ( #163, #68 ), #6, .T. ) ;
#137 = CARTESIAN_POINT ( 'NONE',  ( 4.189777606611757660E-15, -3.673940397442058882E-17, 1.199999999999999512 ) ) ;
#138 = DIRECTION ( 'NONE',  ( -3.491481338843133355E-15, 3.061616997868383634E-17, -1.000000000000000000 ) ) ;
#139 = PRODUCT_DEFINITION_FORMATION_WITH_SPECIFIED_SOURCE ( 'ANY', '', #19, .NOT_KNOWN. ) ;
#140 = DIRECTION ( 'NONE',  ( 1.540743955509788463E-31, 1.000000000000000000, 4.336808689942017120E-17 ) ) ;
#141 = CIRCLE ( 'NONE', #39, 5.000000000000000000 ) ;
#142 = VERTEX_POINT ( 'NONE', #71 ) ;
#143 = APPROVAL_ROLE ( '' ) ;
#144 = CALENDAR_DATE ( 2021, 6, 12 ) ;
#145 = VERTEX_POINT ( 'NONE', #153 ) ;
#146 = LOCAL_TIME ( 13, 59, 17.00000000000000000, #59 ) ;
#147 = ORIENTED_EDGE ( 'NONE', *, *, #100, .F. ) ;
#148 = ORIENTED_EDGE ( 'NONE', *, *, #74, .F. ) ;
#149 = CC_DESIGN_APPROVAL ( #18, ( #51 ) ) ;
#150 = CC_DESIGN_SECURITY_CLASSIFICATION ( #105, ( #139 ) ) ;
#151 = DIRECTION ( 'NONE',  ( -1.068957861474239871E-31, -1.000000000000000000, -3.061616997868383634E-17 ) ) ;
#152 = FACE_BOUND ( 'NONE', #134, .T. ) ;
#153 = CARTESIAN_POINT ( 'NONE',  ( 4.189777606611758449E-15, 5.000000000000000888, 1.199999999999999734 ) ) ;
#154 = LOCAL_TIME ( 13, 59, 17.00000000000000000, #25 ) ;
#155 = PERSON_AND_ORGANIZATION_ROLE ( 'creator' ) ;
#156 = ADVANCED_BREP_SHAPE_REPRESENTATION ( '36049', ( #162, #22 ), #33 ) ;
#157 = APPLICATION_PROTOCOL_DEFINITION ( 'international standard', 'config_control_design', 1994, #88 ) ;
#158 = PERSON_AND_ORGANIZATION ( #64, #77 ) ;
#159 = ORIENTED_EDGE ( 'NONE', *, *, #117, .F. ) ;
#160 = APPLICATION_CONTEXT ( 'configuration controlled 3d designs of mechanical parts and assemblies' ) ;
#161 = CARTESIAN_POINT ( 'NONE',  ( -5.344789307371198696E-31, 4.686749320818307077E-33, -1.530808498934191817E-16 ) ) ;
#162 = MANIFOLD_SOLID_BREP ( 'Corps-Déplacer/Copier1', #12 ) ;
#163 = FACE_BOUND ( 'NONE', #46, .T. ) ;
#164 = CARTESIAN_POINT ( 'NONE',  ( 4.189777606611757660E-15, 5.000000000000000888, 1.199999999999999512 ) ) ;
#165 = DIRECTION ( 'NONE',  ( 1.068957861474239652E-31, 1.000000000000000000, 3.061616997868383634E-17 ) ) ;
#166 = PERSON_AND_ORGANIZATION_ROLE ( 'creator' ) ;
#167 = APPROVAL_ROLE ( '' ) ;
#168 = APPROVAL_DATE_TIME ( #73, #96 ) ;
#169 = PERSON_AND_ORGANIZATION ( #64, #77 ) ;
ENDSEC;
END-ISO-10303-21;
