ISO-10303-21;
HEADER;
FILE_DESCRIPTION (( 'STEP AP203' ),
    '1' );
FILE_NAME ('36048.step',
    '2021-12-06T12:59:17',
    ( '' ),
    ( '' ),
    'SwSTEP 2.0',
    'SolidWorks 2019',
    '' );
FILE_SCHEMA (( 'CONFIG_CONTROL_DESIGN' ));
ENDSEC;

DATA;
#1 = MECHANICAL_CONTEXT ( 'NONE', #123, 'mechanical' ) ;
#2 = CARTESIAN_POINT ( 'NONE',  ( 6.982962677686266711E-15, 50.00000000000000000, 2.000000000000000000 ) ) ;
#3 = DATE_AND_TIME ( #52, #135 ) ;
#4 = ORIENTED_EDGE ( 'NONE', *, *, #9, .T. ) ;
#5 = COORDINATED_UNIVERSAL_TIME_OFFSET ( 1, 0, .AHEAD. ) ;
#6 =( GEOMETRIC_REPRESENTATION_CONTEXT ( 3 ) GLOBAL_UNCERTAINTY_ASSIGNED_CONTEXT ( ( #28 ) ) GLOBAL_UNIT_ASSIGNED_CONTEXT ( ( #87, #85, #82 ) ) REPRESENTATION_CONTEXT ( 'NONE', 'WORKASPACE' ) );
#7 = ADVANCED_FACE ( 'NONE', ( #118, #152 ), #83, .F. ) ;
#8 = CC_DESIGN_APPROVAL ( #157, ( #106 ) ) ;
#9 = EDGE_CURVE ( 'NONE', #16, #16, #57, .T. ) ;
#10 = FACE_OUTER_BOUND ( 'NONE', #80, .T. ) ;
#11 = CARTESIAN_POINT ( 'NONE',  ( -7.055121885729980212E-31, 3.711905462088095937E-33, -2.020667218593132262E-16 ) ) ;
#12 = DIRECTION ( 'NONE',  ( 0.0000000000000000000, 0.0000000000000000000, 1.000000000000000000 ) ) ;
#13 = DIRECTION ( 'NONE',  ( -3.491481338843133355E-15, 1.836970198721029441E-17, -1.000000000000000000 ) ) ;
#14 = AXIS2_PLACEMENT_3D ( 'NONE', #35, #127, #34 ) ;
#15 = EDGE_CURVE ( 'NONE', #168, #168, #70, .T. ) ;
#16 = VERTEX_POINT ( 'NONE', #150 ) ;
#17 = PERSON_AND_ORGANIZATION_ROLE ( 'creator' ) ;
#18 = CALENDAR_DATE ( 2021, 6, 12 ) ;
#19 = EDGE_CURVE ( 'NONE', #33, #33, #84, .T. ) ;
#20 = CC_DESIGN_PERSON_AND_ORGANIZATION_ASSIGNMENT ( #119, #17, ( #106 ) ) ;
#21 = CARTESIAN_POINT ( 'NONE',  ( 0.0000000000000000000, 0.0000000000000000000, 0.0000000000000000000 ) ) ;
#22 = DIRECTION ( 'NONE',  ( 3.491481338843133355E-15, -1.836970198721029441E-17, 1.000000000000000000 ) ) ;
#23 = CARTESIAN_POINT ( 'NONE',  ( 0.0000000000000000000, 0.0000000000000000000, 0.0000000000000000000 ) ) ;
#24 = PLANE ( 'NONE',  #55 ) ;
#25 = PERSON_AND_ORGANIZATION_ROLE ( 'design_owner' ) ;
#26 = EDGE_LOOP ( 'NONE', ( #62 ) ) ;
#27 = SHAPE_DEFINITION_REPRESENTATION ( #169, #138 ) ;
#28 = UNCERTAINTY_MEASURE_WITH_UNIT (LENGTH_MEASURE( 1.000000000000000082E-05 ), #87, 'distance_accuracy_value', 'NONE');
#29 = APPROVAL_STATUS ( 'not_yet_approved' ) ;
#30 = COORDINATED_UNIVERSAL_TIME_OFFSET ( 1, 0, .AHEAD. ) ;
#31 = APPROVAL_DATE_TIME ( #54, #148 ) ;
#32 = AXIS2_PLACEMENT_3D ( 'NONE', #23, #38, #107 ) ;
#33 = VERTEX_POINT ( 'NONE', #2 ) ;
#34 = DIRECTION ( 'NONE',  ( 6.162975822039154730E-32, 1.000000000000000000, 1.734723475976807094E-17 ) ) ;
#35 = CARTESIAN_POINT ( 'NONE',  ( 6.982962677686263555E-15, -3.673940397442057649E-17, 1.999999999999999112 ) ) ;
#36 = EDGE_CURVE ( 'NONE', #155, #155, #56, .T. ) ;
#37 = DIRECTION ( 'NONE',  ( -6.413747168845436158E-32, -1.000000000000000000, -1.836970198721029441E-17 ) ) ;
#38 = DIRECTION ( 'NONE',  ( -3.491481338843133355E-15, 1.836970198721029441E-17, -1.000000000000000000 ) ) ;
#39 = CC_DESIGN_PERSON_AND_ORGANIZATION_ASSIGNMENT ( #161, #43, ( #69 ) ) ;
#40 = MANIFOLD_SOLID_BREP ( 'Corps-Déplacer/Copier1', #115 ) ;
#41 = PERSON_AND_ORGANIZATION ( #142, #164 ) ;
#42 = DESIGN_CONTEXT ( 'detailed design', #60, 'design' ) ;
#43 = PERSON_AND_ORGANIZATION_ROLE ( 'classification_officer' ) ;
#44 = DIRECTION ( 'NONE',  ( -3.491481338843133355E-15, 1.836970198721029441E-17, -1.000000000000000000 ) ) ;
#45 = DIRECTION ( 'NONE',  ( -3.491481338843133355E-15, 1.836970198721029441E-17, -1.000000000000000000 ) ) ;
#46 = LOCAL_TIME ( 13, 59, 17.00000000000000000, #30 ) ;
#47 = CYLINDRICAL_SURFACE ( 'NONE', #128, 50.00000000000000000 ) ;
#48 = PERSON_AND_ORGANIZATION ( #142, #164 ) ;
#49 = PERSON_AND_ORGANIZATION ( #142, #164 ) ;
#50 = AXIS2_PLACEMENT_3D ( 'NONE', #74, #44, #125 ) ;
#51 = ADVANCED_FACE ( 'NONE', ( #134, #96 ), #47, .T. ) ;
#52 = CALENDAR_DATE ( 2021, 6, 12 ) ;
#53 = PRODUCT_DEFINITION ( 'UNKNOWN', '', #106, #42 ) ;
#54 = DATE_AND_TIME ( #18, #147 ) ;
#55 = AXIS2_PLACEMENT_3D ( 'NONE', #59, #45, #165 ) ;
#56 = CIRCLE ( 'NONE', #98, 11.00000000000000000 ) ;
#57 = CIRCLE ( 'NONE', #50, 11.00000000000000000 ) ;
#58 = EDGE_LOOP ( 'NONE', ( #154 ) ) ;
#59 = CARTESIAN_POINT ( 'NONE',  ( -1.250680697924860160E-30, 11.00000000000000000, -3.582091887506007225E-16 ) ) ;
#60 = APPLICATION_CONTEXT ( 'configuration controlled 3d designs of mechanical parts and assemblies' ) ;
#61 = APPLICATION_PROTOCOL_DEFINITION ( 'international standard', 'config_control_design', 1994, #123 ) ;
#62 = ORIENTED_EDGE ( 'NONE', *, *, #19, .T. ) ;
#63 = CARTESIAN_POINT ( 'NONE',  ( 0.0000000000000000000, 0.0000000000000000000, 0.0000000000000000000 ) ) ;
#64 = DATE_TIME_ROLE ( 'classification_date' ) ;
#65 = AXIS2_PLACEMENT_3D ( 'NONE', #72, #75, #109 ) ;
#66 = ORIENTED_EDGE ( 'NONE', *, *, #36, .F. ) ;
#67 = PRODUCT_RELATED_PRODUCT_CATEGORY ( 'detail', '', ( #114 ) ) ;
#68 = EDGE_LOOP ( 'NONE', ( #66 ) ) ;
#69 = SECURITY_CLASSIFICATION ( '', '', #116 ) ;
#70 = CIRCLE ( 'NONE', #65, 50.00000000000000000 ) ;
#71 = CC_DESIGN_PERSON_AND_ORGANIZATION_ASSIGNMENT ( #41, #141, ( #53 ) ) ;
#72 = CARTESIAN_POINT ( 'NONE',  ( -3.206873584422719042E-30, 1.687229755494589261E-32, -9.184850993605147944E-16 ) ) ;
#73 = LOCAL_TIME ( 13, 59, 17.00000000000000000, #101 ) ;
#74 = CARTESIAN_POINT ( 'NONE',  ( 6.982962677686266711E-15, -3.673940397442058882E-17, 2.000000000000000000 ) ) ;
#75 = DIRECTION ( 'NONE',  ( -3.491481338843133355E-15, 1.836970198721029441E-17, -1.000000000000000000 ) ) ;
#76 = APPROVAL_PERSON_ORGANIZATION ( #48, #157, #158 ) ;
#77 = DIRECTION ( 'NONE',  ( -3.491481338843133355E-15, 1.836970198721029441E-17, -1.000000000000000000 ) ) ;
#78 = ORIENTED_EDGE ( 'NONE', *, *, #19, .F. ) ;
#79 = APPLICATION_PROTOCOL_DEFINITION ( 'international standard', 'config_control_design', 1994, #60 ) ;
#80 = EDGE_LOOP ( 'NONE', ( #132 ) ) ;
#81 = DATE_AND_TIME ( #89, #73 ) ;
#82 =( NAMED_UNIT ( * ) SI_UNIT ( $, .STERADIAN. ) SOLID_ANGLE_UNIT ( ) );
#83 = CYLINDRICAL_SURFACE ( 'NONE', #32, 11.00000000000000000 ) ;
#84 = CIRCLE ( 'NONE', #14, 50.00000000000000000 ) ;
#85 =( NAMED_UNIT ( * ) PLANE_ANGLE_UNIT ( ) SI_UNIT ( $, .RADIAN. ) );
#86 = PERSON_AND_ORGANIZATION ( #142, #164 ) ;
#87 =( LENGTH_UNIT ( ) NAMED_UNIT ( * ) SI_UNIT ( .MILLI., .METRE. ) );
#88 = PERSON_AND_ORGANIZATION ( #142, #164 ) ;
#89 = CALENDAR_DATE ( 2021, 6, 12 ) ;
#90 = APPROVAL_ROLE ( '' ) ;
#91 = APPROVAL_DATE_TIME ( #160, #157 ) ;
#92 = AXIS2_PLACEMENT_3D ( 'NONE', #21, #12, #112 ) ;
#93 = DATE_AND_TIME ( #117, #46 ) ;
#94 = CC_DESIGN_DATE_AND_TIME_ASSIGNMENT ( #3, #146, ( #53 ) ) ;
#95 = CC_DESIGN_APPROVAL ( #108, ( #69 ) ) ;
#96 = FACE_OUTER_BOUND ( 'NONE', #162, .T. ) ;
#97 = FACE_BOUND ( 'NONE', #163, .T. ) ;
#98 = AXIS2_PLACEMENT_3D ( 'NONE', #11, #13, #137 ) ;
#99 = CARTESIAN_POINT ( 'NONE',  ( -8.552847072295026068E-47, 11.00000000000000000, 0.0000000000000000000 ) ) ;
#100 = CC_DESIGN_PERSON_AND_ORGANIZATION_ASSIGNMENT ( #145, #105, ( #106 ) ) ;
#101 = COORDINATED_UNIVERSAL_TIME_OFFSET ( 1, 0, .AHEAD. ) ;
#102 = APPROVAL_DATE_TIME ( #81, #108 ) ;
#103 = APPROVAL_ROLE ( '' ) ;
#104 = CALENDAR_DATE ( 2021, 6, 12 ) ;
#105 = PERSON_AND_ORGANIZATION_ROLE ( 'design_supplier' ) ;
#106 = PRODUCT_DEFINITION_FORMATION_WITH_SPECIFIED_SOURCE ( 'ANY', '', #114, .NOT_KNOWN. ) ;
#107 = DIRECTION ( 'NONE',  ( 6.413747168845436158E-32, 1.000000000000000000, 1.836970198721029441E-17 ) ) ;
#108 = APPROVAL ( #133, 'UNSPECIFIED' ) ;
#109 = DIRECTION ( 'NONE',  ( 6.413747168845436158E-32, 1.000000000000000000, 1.836970198721029441E-17 ) ) ;
#110 = ADVANCED_FACE ( 'NONE', ( #10, #113 ), #24, .T. ) ;
#111 = PLANE ( 'NONE',  #144 ) ;
#112 = DIRECTION ( 'NONE',  ( 1.000000000000000000, 0.0000000000000000000, 0.0000000000000000000 ) ) ;
#113 = FACE_BOUND ( 'NONE', #68, .T. ) ;
#114 = PRODUCT ( '36048', '36048', '', ( #1 ) ) ;
#115 = CLOSED_SHELL ( 'NONE', ( #110, #51, #136, #7 ) ) ;
#116 = SECURITY_CLASSIFICATION_LEVEL ( 'unclassified' ) ;
#117 = CALENDAR_DATE ( 2021, 6, 12 ) ;
#118 = FACE_OUTER_BOUND ( 'NONE', #58, .T. ) ;
#119 = PERSON_AND_ORGANIZATION ( #142, #164 ) ;
#120 = CC_DESIGN_DATE_AND_TIME_ASSIGNMENT ( #93, #64, ( #69 ) ) ;
#121 = CC_DESIGN_SECURITY_CLASSIFICATION ( #69, ( #106 ) ) ;
#122 = CC_DESIGN_APPROVAL ( #148, ( #53 ) ) ;
#123 = APPLICATION_CONTEXT ( 'configuration controlled 3d designs of mechanical parts and assemblies' ) ;
#124 = ORIENTED_EDGE ( 'NONE', *, *, #15, .F. ) ;
#125 = DIRECTION ( 'NONE',  ( 0.0000000000000000000, 1.000000000000000000, 0.0000000000000000000 ) ) ;
#126 = CARTESIAN_POINT ( 'NONE',  ( 6.982962677686265133E-15, 11.00000000000000000, 1.999999999999999556 ) ) ;
#127 = DIRECTION ( 'NONE',  ( -3.491481338843133355E-15, 1.836970198721029441E-17, -1.000000000000000000 ) ) ;
#128 = AXIS2_PLACEMENT_3D ( 'NONE', #63, #77, #129 ) ;
#129 = DIRECTION ( 'NONE',  ( 6.413747168845436158E-32, 1.000000000000000000, 1.836970198721029441E-17 ) ) ;
#130 = EDGE_LOOP ( 'NONE', ( #78 ) ) ;
#131 = EDGE_LOOP ( 'NONE', ( #167 ) ) ;
#132 = ORIENTED_EDGE ( 'NONE', *, *, #15, .T. ) ;
#133 = APPROVAL_STATUS ( 'not_yet_approved' ) ;
#134 = FACE_OUTER_BOUND ( 'NONE', #26, .T. ) ;
#135 = LOCAL_TIME ( 13, 59, 17.00000000000000000, #156 ) ;
#136 = ADVANCED_FACE ( 'NONE', ( #97, #149 ), #111, .T. ) ;
#137 = DIRECTION ( 'NONE',  ( 6.413747168845436158E-32, 1.000000000000000000, 1.836970198721029441E-17 ) ) ;
#138 = ADVANCED_BREP_SHAPE_REPRESENTATION ( '36048', ( #40, #92 ), #6 ) ;
#139 = APPROVAL_PERSON_ORGANIZATION ( #49, #108, #90 ) ;
#140 = APPROVAL_STATUS ( 'not_yet_approved' ) ;
#141 = PERSON_AND_ORGANIZATION_ROLE ( 'creator' ) ;
#142 = PERSON ( 'UNSPECIFIED', 'UNSPECIFIED', 'UNSPECIFIED', ('UNSPECIFIED'), ('UNSPECIFIED'), ('UNSPECIFIED') ) ;
#143 = COORDINATED_UNIVERSAL_TIME_OFFSET ( 1, 0, .AHEAD. ) ;
#144 = AXIS2_PLACEMENT_3D ( 'NONE', #126, #22, #37 ) ;
#145 = PERSON_AND_ORGANIZATION ( #142, #164 ) ;
#146 = DATE_TIME_ROLE ( 'creation_date' ) ;
#147 = LOCAL_TIME ( 13, 59, 17.00000000000000000, #5 ) ;
#148 = APPROVAL ( #29, 'UNSPECIFIED' ) ;
#149 = FACE_OUTER_BOUND ( 'NONE', #130, .T. ) ;
#150 = CARTESIAN_POINT ( 'NONE',  ( 6.982962677686266711E-15, 11.00000000000000000, 2.000000000000000000 ) ) ;
#151 = CARTESIAN_POINT ( 'NONE',  ( -6.842277657836020854E-46, 50.00000000000000000, 0.0000000000000000000 ) ) ;
#152 = FACE_OUTER_BOUND ( 'NONE', #131, .T. ) ;
#153 = LOCAL_TIME ( 13, 59, 17.00000000000000000, #143 ) ;
#154 = ORIENTED_EDGE ( 'NONE', *, *, #36, .T. ) ;
#155 = VERTEX_POINT ( 'NONE', #99 ) ;
#156 = COORDINATED_UNIVERSAL_TIME_OFFSET ( 1, 0, .AHEAD. ) ;
#157 = APPROVAL ( #140, 'UNSPECIFIED' ) ;
#158 = APPROVAL_ROLE ( '' ) ;
#159 = CC_DESIGN_PERSON_AND_ORGANIZATION_ASSIGNMENT ( #86, #25, ( #114 ) ) ;
#160 = DATE_AND_TIME ( #104, #153 ) ;
#161 = PERSON_AND_ORGANIZATION ( #142, #164 ) ;
#162 = EDGE_LOOP ( 'NONE', ( #124 ) ) ;
#163 = EDGE_LOOP ( 'NONE', ( #4 ) ) ;
#164 = ORGANIZATION ( 'UNSPECIFIED', 'UNSPECIFIED', '' ) ;
#165 = DIRECTION ( 'NONE',  ( 6.413747168845436158E-32, 1.000000000000000000, 1.836970198721029441E-17 ) ) ;
#166 = APPROVAL_PERSON_ORGANIZATION ( #88, #148, #103 ) ;
#167 = ORIENTED_EDGE ( 'NONE', *, *, #9, .F. ) ;
#168 = VERTEX_POINT ( 'NONE', #151 ) ;
#169 = PRODUCT_DEFINITION_SHAPE ( 'NONE', 'NONE',  #53 ) ;
ENDSEC;
END-ISO-10303-21;
