ISO-10303-21;
HEADER;
FILE_DESCRIPTION (( 'STEP AP203' ),
    '1' );
FILE_NAME ('358882358898.step',
    '2022-06-01T11:23:48',
    ( '' ),
    ( '' ),
    'SwSTEP 2.0',
    'SolidWorks 2019',
    '' );
FILE_SCHEMA (( 'CONFIG_CONTROL_DESIGN' ));
ENDSEC;

DATA;
#1 = DIRECTION ( 'NONE',  ( -2.551347498223652926E-17, 1.000000000000000000, 0.000000000000000000 ) ) ;
#2 = VERTEX_POINT ( 'NONE', #146 ) ;
#3 = AXIS2_PLACEMENT_3D ( 'NONE', #30, #185, #143 ) ;
#4 = DIRECTION ( 'NONE',  ( 1.000000000000000000, 1.271748599114559014E-16, -0.000000000000000000 ) ) ;
#5 = PERSON_AND_ORGANIZATION ( #392, #10 ) ;
#6 = AXIS2_PLACEMENT_3D ( 'NONE', #206, #4, #380 ) ;
#7 = APPROVAL ( #251, 'UNSPECIFIED' ) ;
#8 = DIRECTION ( 'NONE',  ( 1.000000000000000000, 0.000000000000000000, 0.000000000000000000 ) ) ;
#9 = EDGE_CURVE ( 'NONE', #312, #390, #153, .T. ) ;
#10 = ORGANIZATION ( 'UNSPECIFIED', 'UNSPECIFIED', '' ) ;
#11 = CARTESIAN_POINT ( 'NONE',  ( -24.93301270189222762, -1.950915778383062067E-15, 0.000000000000000000 ) ) ;
#12 = ORIENTED_EDGE ( 'NONE', *, *, #379, .T. ) ;
#13 = FACE_OUTER_BOUND ( 'NONE', #409, .T. ) ;
#14 = ORIENTED_EDGE ( 'NONE', *, *, #120, .T. ) ;
#15 = ORIENTED_EDGE ( 'NONE', *, *, #297, .F. ) ;
#16 = DIRECTION ( 'NONE',  ( -1.000000000000000000, -2.551347498223652618E-17, 0.000000000000000000 ) ) ;
#17 = CIRCLE ( 'NONE', #6, 3.999999999999994227 ) ;
#18 = DATE_TIME_ROLE ( 'classification_date' ) ;
#19 = ORIENTED_EDGE ( 'NONE', *, *, #137, .T. ) ;
#20 = DIRECTION ( 'NONE',  ( 1.000000000000000000, 1.271748599114559014E-16, -0.000000000000000000 ) ) ;
#21 = CARTESIAN_POINT ( 'NONE',  ( -64.00000000000000000, -3.200000000000006395, 4.408728476930471151E-16 ) ) ;
#22 = CALENDAR_DATE ( 2022, 1, 6 ) ;
#23 = ORIENTED_EDGE ( 'NONE', *, *, #398, .T. ) ;
#24 = PLANE ( 'NONE',  #139 ) ;
#25 = CC_DESIGN_PERSON_AND_ORGANIZATION_ASSIGNMENT ( #300, #196, ( #180 ) ) ;
#26 = DIRECTION ( 'NONE',  ( 1.000000000000000000, 1.271748599114559014E-16, -0.000000000000000000 ) ) ;
#27 = ORIENTED_EDGE ( 'NONE', *, *, #37, .F. ) ;
#28 = DIRECTION ( 'NONE',  ( -2.551347498223652926E-17, 1.000000000000000000, 0.000000000000000000 ) ) ;
#29 = EDGE_LOOP ( 'NONE', ( #15, #327, #194, #235 ) ) ;
#30 = CARTESIAN_POINT ( 'NONE',  ( -12.00000000000000000, -3.061616997868383141E-16, 0.000000000000000000 ) ) ;
#31 = AXIS2_PLACEMENT_3D ( 'NONE', #234, #263, #302 ) ;
#32 = ORIENTED_EDGE ( 'NONE', *, *, #111, .F. ) ;
#33 = ADVANCED_FACE ( 'NONE', ( #278 ), #352, .T. ) ;
#34 = DIRECTION ( 'NONE',  ( 0.000000000000000000, 1.000000000000000000, 0.000000000000000000 ) ) ;
#35 = EDGE_CURVE ( 'NONE', #312, #175, #292, .T. ) ;
#36 = APPROVAL_ROLE ( '' ) ;
#37 = EDGE_CURVE ( 'NONE', #175, #82, #301, .T. ) ;
#38 = CARTESIAN_POINT ( 'NONE',  ( 8.164311994315688870E-17, -4.000000000000000000, 4.898587196589412829E-16 ) ) ;
#39 =( NAMED_UNIT ( * ) SI_UNIT ( $, .STERADIAN. ) SOLID_ANGLE_UNIT ( ) );
#40 = ADVANCED_FACE ( 'NONE', ( #402 ), #112, .T. ) ;
#41 = VERTEX_POINT ( 'NONE', #211 ) ;
#42 = ORIENTED_EDGE ( 'NONE', *, *, #35, .T. ) ;
#43 = COORDINATED_UNIVERSAL_TIME_OFFSET ( 1, 0, .AHEAD. ) ;
#44 = CARTESIAN_POINT ( 'NONE',  ( -2.041077998578922834E-17, -5.207499245353674245E-34, 0.000000000000000000 ) ) ;
#45 = ORIENTED_EDGE ( 'NONE', *, *, #120, .F. ) ;
#46 = CARTESIAN_POINT ( 'NONE',  ( -12.00000000000000000, 4.000000000000000888, 0.000000000000000000 ) ) ;
#47 = AXIS2_PLACEMENT_3D ( 'NONE', #209, #283, #381 ) ;
#48 = CC_DESIGN_PERSON_AND_ORGANIZATION_ASSIGNMENT ( #274, #296, ( #180 ) ) ;
#49 = CALENDAR_DATE ( 2022, 1, 6 ) ;
#50 = CIRCLE ( 'NONE', #3, 3.749999999999998668 ) ;
#51 = COORDINATED_UNIVERSAL_TIME_OFFSET ( 1, 0, .AHEAD. ) ;
#52 = EDGE_LOOP ( 'NONE', ( #221, #323, #74, #88 ) ) ;
#53 = FACE_OUTER_BOUND ( 'NONE', #289, .T. ) ;
#54 = DIRECTION ( 'NONE',  ( 1.000000000000000000, 2.551347498223652618E-17, -0.000000000000000000 ) ) ;
#55 = SECURITY_CLASSIFICATION_LEVEL ( 'unclassified' ) ;
#56 = CARTESIAN_POINT ( 'NONE',  ( -12.00000000000000000, -3.749999999999999556, 4.592425496802572986E-16 ) ) ;
#57 = DIRECTION ( 'NONE',  ( 0.000000000000000000, 1.000000000000000000, 0.000000000000000000 ) ) ;
#58 = CARTESIAN_POINT ( 'NONE',  ( -12.00000000000000000, -3.061616997868383141E-16, 0.000000000000000000 ) ) ;
#59 = DATE_AND_TIME ( #308, #156 ) ;
#60 = CARTESIAN_POINT ( 'NONE',  ( -24.00000000000000000, -1.832260018724308885E-15, 0.000000000000000000 ) ) ;
#61 = CARTESIAN_POINT ( 'NONE',  ( -24.00000000000000000, -3.750000000000001332, 0.000000000000000000 ) ) ;
#62 = AXIS2_PLACEMENT_3D ( 'NONE', #347, #125, #184 ) ;
#63 = CARTESIAN_POINT ( 'NONE',  ( -24.00000000000000000, -1.832260018724308885E-15, 0.000000000000000000 ) ) ;
#64 = EDGE_CURVE ( 'NONE', #79, #119, #348, .T. ) ;
#65 = ORIENTED_EDGE ( 'NONE', *, *, #64, .T. ) ;
#66 = DIRECTION ( 'NONE',  ( 0.7071067811865453523, 0.7071067811865497932, 0.000000000000000000 ) ) ;
#67 = DIRECTION ( 'NONE',  ( 0.000000000000000000, 1.000000000000000000, 0.000000000000000000 ) ) ;
#68 = CARTESIAN_POINT ( 'NONE',  ( -12.00000000000000000, -3.061616997868383634E-16, 0.000000000000000000 ) ) ;
#69 = VECTOR ( 'NONE', #270, 1000.000000000000000 ) ;
#70 = EDGE_CURVE ( 'NONE', #175, #41, #76, .T. ) ;
#71 =( LENGTH_UNIT ( ) NAMED_UNIT ( * ) SI_UNIT ( .MILLI., .METRE. ) );
#72 = EDGE_CURVE ( 'NONE', #394, #237, #294, .T. ) ;
#73 = DIRECTION ( 'NONE',  ( 1.000000000000000000, 1.271748599114559014E-16, -0.000000000000000000 ) ) ;
#74 = ORIENTED_EDGE ( 'NONE', *, *, #90, .T. ) ;
#75 = DATE_AND_TIME ( #166, #171 ) ;
#76 = LINE ( 'NONE', #291, #354 ) ;
#77 = ORIENTED_EDGE ( 'NONE', *, *, #279, .T. ) ;
#78 = CARTESIAN_POINT ( 'NONE',  ( -63.20000000000000284, -6.817514527253381760E-15, 0.000000000000000000 ) ) ;
#79 = VERTEX_POINT ( 'NONE', #135 ) ;
#80 = ORIENTED_EDGE ( 'NONE', *, *, #320, .T. ) ;
#81 = AXIS2_PLACEMENT_3D ( 'NONE', #78, #399, #401 ) ;
#82 = VERTEX_POINT ( 'NONE', #229 ) ;
#83 = CARTESIAN_POINT ( 'NONE',  ( -12.00000000000000000, 3.999999999999996447, 0.000000000000000000 ) ) ;
#84 = DIRECTION ( 'NONE',  ( -2.551347498223652926E-17, 1.000000000000000000, 0.000000000000000000 ) ) ;
#85 = CLOSED_SHELL ( 'NONE', ( #225, #388, #170, #187 ) ) ;
#86 = AXIS2_PLACEMENT_3D ( 'NONE', #338, #248, #307 ) ;
#87 = CARTESIAN_POINT ( 'NONE',  ( 0.000000000000000000, 0.000000000000000000, 0.000000000000000000 ) ) ;
#88 = ORIENTED_EDGE ( 'NONE', *, *, #379, .F. ) ;
#89 = CARTESIAN_POINT ( 'NONE',  ( -12.00000000000000000, -3.749999999999999112, 4.592425496802572986E-16 ) ) ;
#90 = EDGE_CURVE ( 'NONE', #82, #365, #186, .T. ) ;
#91 = ORIENTED_EDGE ( 'NONE', *, *, #9, .T. ) ;
#92 = AXIS2_PLACEMENT_3D ( 'NONE', #63, #123, #378 ) ;
#93 = DIRECTION ( 'NONE',  ( 1.000000000000000000, 1.271748599114559014E-16, -0.000000000000000000 ) ) ;
#94 = CARTESIAN_POINT ( 'NONE',  ( -24.00000000000000000, -3.750000000000001776, 0.000000000000000000 ) ) ;
#95 = AXIS2_PLACEMENT_3D ( 'NONE', #182, #228, #280 ) ;
#96 = COORDINATED_UNIVERSAL_TIME_OFFSET ( 1, 0, .AHEAD. ) ;
#97 = VECTOR ( 'NONE', #359, 1000.000000000000114 ) ;
#98 = EDGE_CURVE ( 'NONE', #2, #394, #129, .T. ) ;
#99 = LOCAL_TIME ( 13, 23, 48.00000000000000000, #220 ) ;
#100 = LINE ( 'NONE', #217, #97 ) ;
#101 =( NAMED_UNIT ( * ) PLANE_ANGLE_UNIT ( ) SI_UNIT ( $, .RADIAN. ) );
#102 = DIRECTION ( 'NONE',  ( 0.000000000000000000, 1.000000000000000000, 0.000000000000000000 ) ) ;
#103 = EDGE_CURVE ( 'NONE', #215, #2, #193, .T. ) ;
#104 = APPROVAL_ROLE ( '' ) ;
#105 = VERTEX_POINT ( 'NONE', #21 ) ;
#106 = DIRECTION ( 'NONE',  ( 1.000000000000000000, 1.271748599114559014E-16, -0.000000000000000000 ) ) ;
#107 = LINE ( 'NONE', #330, #277 ) ;
#108 = CC_DESIGN_PERSON_AND_ORGANIZATION_ASSIGNMENT ( #245, #385, ( #260 ) ) ;
#109 = AXIS2_PLACEMENT_3D ( 'NONE', #267, #310, #28 ) ;
#110 = EDGE_LOOP ( 'NONE', ( #23, #91, #400, #178 ) ) ;
#111 = EDGE_CURVE ( 'NONE', #2, #215, #393, .T. ) ;
#112 = CYLINDRICAL_SURFACE ( 'NONE', #134, 3.749999999999999112 ) ;
#113 = CYLINDRICAL_SURFACE ( 'NONE', #240, 3.999999999999996447 ) ;
#114 = APPROVAL_ROLE ( '' ) ;
#115 = DIRECTION ( 'NONE',  ( 0.000000000000000000, 1.000000000000000000, 0.000000000000000000 ) ) ;
#116 = FACE_OUTER_BOUND ( 'NONE', #164, .T. ) ;
#117 = FACE_OUTER_BOUND ( 'NONE', #321, .T. ) ;
#118 = CIRCLE ( 'NONE', #86, 3.199999999999999289 ) ;
#119 = VERTEX_POINT ( 'NONE', #198 ) ;
#120 = EDGE_CURVE ( 'NONE', #105, #162, #118, .T. ) ;
#121 = FACE_OUTER_BOUND ( 'NONE', #181, .T. ) ;
#122 = ORIENTED_EDGE ( 'NONE', *, *, #297, .T. ) ;
#123 = DIRECTION ( 'NONE',  ( -1.000000000000000000, -1.271748599114559014E-16, 0.000000000000000000 ) ) ;
#124 = LOCAL_TIME ( 13, 23, 48.00000000000000000, #96 ) ;
#125 = DIRECTION ( 'NONE',  ( 1.000000000000000000, 1.271748599114559014E-16, -0.000000000000000000 ) ) ;
#126 = VECTOR ( 'NONE', #411, 1000.000000000000000 ) ;
#127 = EDGE_CURVE ( 'NONE', #390, #41, #412, .T. ) ;
#128 = DESIGN_CONTEXT ( 'detailed design', #239, 'design' ) ;
#129 = LINE ( 'NONE', #395, #152 ) ;
#130 = EDGE_LOOP ( 'NONE', ( #205, #357 ) ) ;
#131 = CC_DESIGN_APPROVAL ( #151, ( #212 ) ) ;
#132 = CARTESIAN_POINT ( 'NONE',  ( 0.000000000000000000, 0.000000000000000000, 0.000000000000000000 ) ) ;
#133 = CYLINDRICAL_SURFACE ( 'NONE', #345, 3.749999999999999112 ) ;
#134 = AXIS2_PLACEMENT_3D ( 'NONE', #227, #231, #67 ) ;
#135 = CARTESIAN_POINT ( 'NONE',  ( -63.20000000000000284, 3.999999999999991562, 0.000000000000000000 ) ) ;
#136 = ORIENTED_EDGE ( 'NONE', *, *, #320, .F. ) ;
#137 = EDGE_CURVE ( 'NONE', #215, #237, #107, .T. ) ;
#138 = FACE_OUTER_BOUND ( 'NONE', #275, .T. ) ;
#139 = AXIS2_PLACEMENT_3D ( 'NONE', #271, #408, #232 ) ;
#140 = DATE_AND_TIME ( #22, #99 ) ;
#141 = CC_DESIGN_PERSON_AND_ORGANIZATION_ASSIGNMENT ( #331, #332, ( #210 ) ) ;
#142 = ORIENTED_EDGE ( 'NONE', *, *, #72, .F. ) ;
#143 = DIRECTION ( 'NONE',  ( 0.000000000000000000, 1.000000000000000000, 0.000000000000000000 ) ) ;
#144 = DIRECTION ( 'NONE',  ( 0.000000000000000000, 1.000000000000000000, 0.000000000000000000 ) ) ;
#145 = PERSON_AND_ORGANIZATION ( #392, #10 ) ;
#146 = CARTESIAN_POINT ( 'NONE',  ( -12.00000000000000000, -4.000000000000000888, 4.898587196589413815E-16 ) ) ;
#147 = LINE ( 'NONE', #403, #272 ) ;
#148 = AXIS2_PLACEMENT_3D ( 'NONE', #306, #93, #34 ) ;
#149 = ORIENTED_EDGE ( 'NONE', *, *, #72, .T. ) ;
#150 = FACE_OUTER_BOUND ( 'NONE', #52, .T. ) ;
#151 = APPROVAL ( #387, 'UNSPECIFIED' ) ;
#152 = VECTOR ( 'NONE', #213, 1000.000000000000000 ) ;
#153 = LINE ( 'NONE', #56, #69 ) ;
#154 = CARTESIAN_POINT ( 'NONE',  ( -1.122592899218407250E-16, 4.000000000000000000, 0.000000000000000000 ) ) ;
#155 = LINE ( 'NONE', #375, #204 ) ;
#156 = LOCAL_TIME ( 13, 23, 48.00000000000000000, #369 ) ;
#157 = EDGE_CURVE ( 'NONE', #105, #119, #100, .T. ) ;
#158 = CALENDAR_DATE ( 2022, 1, 6 ) ;
#159 = CIRCLE ( 'NONE', #109, 4.000000000000000000 ) ;
#160 = ADVANCED_FACE ( 'NONE', ( #117 ), #273, .T. ) ;
#161 = PERSON_AND_ORGANIZATION ( #392, #10 ) ;
#162 = VERTEX_POINT ( 'NONE', #224 ) ;
#163 = DIRECTION ( 'NONE',  ( 1.000000000000000000, 1.271748599114559014E-16, -0.000000000000000000 ) ) ;
#164 = EDGE_LOOP ( 'NONE', ( #27, #293, #12, #255 ) ) ;
#165 = CIRCLE ( 'NONE', #62, 3.999999999999999112 ) ;
#166 = CALENDAR_DATE ( 2022, 1, 6 ) ;
#167 = AXIS2_PLACEMENT_3D ( 'NONE', #346, #406, #183 ) ;
#168 = MANIFOLD_SOLID_BREP ( 'Révolution2', #85 ) ;
#169 = FACE_OUTER_BOUND ( 'NONE', #200, .T. ) ;
#170 = ADVANCED_FACE ( 'NONE', ( #169 ), #219, .T. ) ;
#171 = LOCAL_TIME ( 13, 23, 48.00000000000000000, #43 ) ;
#172 = ORIENTED_EDGE ( 'NONE', *, *, #137, .F. ) ;
#173 = CYLINDRICAL_SURFACE ( 'NONE', #214, 4.000000000000000000 ) ;
#174 = DIRECTION ( 'NONE',  ( 1.000000000000000000, 2.551347498223652618E-17, -0.000000000000000000 ) ) ;
#175 = VERTEX_POINT ( 'NONE', #364 ) ;
#176 = FACE_OUTER_BOUND ( 'NONE', #130, .T. ) ;
#177 = ADVANCED_FACE ( 'NONE', ( #138 ), #244, .T. ) ;
#178 = ORIENTED_EDGE ( 'NONE', *, *, #70, .F. ) ;
#179 = CYLINDRICAL_SURFACE ( 'NONE', #355, 4.000000000000000000 ) ;
#180 = PRODUCT_DEFINITION_FORMATION_WITH_SPECIFIED_SOURCE ( 'ANY', '', #260, .NOT_KNOWN. ) ;
#181 = EDGE_LOOP ( 'NONE', ( #65, #122, #397, #252 ) ) ;
#182 = CARTESIAN_POINT ( 'NONE',  ( -24.00000000000000000, -1.832260018724308885E-15, 0.000000000000000000 ) ) ;
#183 = DIRECTION ( 'NONE',  ( 0.000000000000000000, 1.000000000000000000, 0.000000000000000000 ) ) ;
#184 = DIRECTION ( 'NONE',  ( 0.000000000000000000, 1.000000000000000000, 0.000000000000000000 ) ) ;
#185 = DIRECTION ( 'NONE',  ( 1.000000000000000000, 1.271748599114559014E-16, -0.000000000000000000 ) ) ;
#186 = CIRCLE ( 'NONE', #246, 3.999999999999994227 ) ;
#187 = ADVANCED_FACE ( 'NONE', ( #53 ), #173, .T. ) ;
#188 = AXIS2_PLACEMENT_3D ( 'NONE', #154, #340, #236 ) ;
#189 = ADVANCED_FACE ( 'NONE', ( #13 ), #133, .T. ) ;
#190 = PERSON_AND_ORGANIZATION ( #392, #10 ) ;
#191 = CARTESIAN_POINT ( 'NONE',  ( -12.00000000000000000, -3.061616997868383141E-16, 0.000000000000000000 ) ) ;
#192 = CARTESIAN_POINT ( 'NONE',  ( -12.00000000000000000, -3.061616997868383634E-16, 0.000000000000000000 ) ) ;
#193 = CIRCLE ( 'NONE', #199, 4.000000000000000888 ) ;
#194 = ORIENTED_EDGE ( 'NONE', *, *, #371, .T. ) ;
#195 = AXIS2_PLACEMENT_3D ( 'NONE', #285, #163, #284 ) ;
#196 = PERSON_AND_ORGANIZATION_ROLE ( 'creator' ) ;
#197 = DIRECTION ( 'NONE',  ( 1.000000000000000000, 1.271748599114559014E-16, -0.000000000000000000 ) ) ;
#198 = CARTESIAN_POINT ( 'NONE',  ( -63.20000000000000284, -4.000000000000007105, 4.898587196589412829E-16 ) ) ;
#199 = AXIS2_PLACEMENT_3D ( 'NONE', #304, #54, #144 ) ;
#200 = EDGE_LOOP ( 'NONE', ( #396, #32 ) ) ;
#201 = PLANE ( 'NONE',  #188 ) ;
#202 = ORIENTED_EDGE ( 'NONE', *, *, #157, .F. ) ;
#203 = DIRECTION ( 'NONE',  ( 0.000000000000000000, 1.000000000000000000, 0.000000000000000000 ) ) ;
#204 = VECTOR ( 'NONE', #66, 1000.000000000000114 ) ;
#205 = ORIENTED_EDGE ( 'NONE', *, *, #333, .T. ) ;
#206 = CARTESIAN_POINT ( 'NONE',  ( -24.93301270189222762, -1.950915778383062067E-15, 0.000000000000000000 ) ) ;
#207 = FACE_OUTER_BOUND ( 'NONE', #29, .T. ) ;
#208 = APPLICATION_CONTEXT ( 'configuration controlled 3d designs of mechanical parts and assemblies' ) ;
#209 = CARTESIAN_POINT ( 'NONE',  ( -63.20000000000000284, -6.817514527253381760E-15, 0.000000000000000000 ) ) ;
#210 = SECURITY_CLASSIFICATION ( '', '', #55 ) ;
#211 = CARTESIAN_POINT ( 'NONE',  ( -12.00000000000000000, 3.749999999999998224, 0.000000000000000000 ) ) ;
#212 = PRODUCT_DEFINITION ( 'UNKNOWN', '', #180, #128 ) ;
#213 = DIRECTION ( 'NONE',  ( 1.000000000000000000, 2.551347498223652618E-17, -0.000000000000000000 ) ) ;
#214 = AXIS2_PLACEMENT_3D ( 'NONE', #132, #253, #216 ) ;
#215 = VERTEX_POINT ( 'NONE', #46 ) ;
#216 = DIRECTION ( 'NONE',  ( -2.551347498223652926E-17, 1.000000000000000000, 0.000000000000000000 ) ) ;
#217 = CARTESIAN_POINT ( 'NONE',  ( -63.20000000000000284, -4.000000000000006217, 4.898587196589411843E-16 ) ) ;
#218 = LOCAL_TIME ( 13, 23, 48.00000000000000000, #51 ) ;
#219 = PLANE ( 'NONE',  #298 ) ;
#220 = COORDINATED_UNIVERSAL_TIME_OFFSET ( 1, 0, .AHEAD. ) ;
#221 = ORIENTED_EDGE ( 'NONE', *, *, #398, .F. ) ;
#222 = DIRECTION ( 'NONE',  ( 2.551347498223652618E-17, -1.000000000000000000, 0.000000000000000000 ) ) ;
#223 = ORIENTED_EDGE ( 'NONE', *, *, #103, .T. ) ;
#224 = CARTESIAN_POINT ( 'NONE',  ( -64.00000000000000000, 3.199999999999992184, 0.000000000000000000 ) ) ;
#225 = ADVANCED_FACE ( 'NONE', ( #238 ), #179, .T. ) ;
#226 = APPROVAL_DATE_TIME ( #269, #7 ) ;
#227 = CARTESIAN_POINT ( 'NONE',  ( -12.00000000000000000, -3.061616997868383634E-16, 0.000000000000000000 ) ) ;
#228 = DIRECTION ( 'NONE',  ( -1.000000000000000000, -1.271748599114559014E-16, 0.000000000000000000 ) ) ;
#229 = CARTESIAN_POINT ( 'NONE',  ( -24.93301270189222762, 3.999999999999992450, 0.000000000000000000 ) ) ;
#230 = APPROVAL ( #405, 'UNSPECIFIED' ) ;
#231 = DIRECTION ( 'NONE',  ( 1.000000000000000000, 1.271748599114559014E-16, -0.000000000000000000 ) ) ;
#232 = DIRECTION ( 'NONE',  ( -1.271748599114559014E-16, 1.000000000000000000, 0.000000000000000000 ) ) ;
#233 = CLOSED_SHELL ( 'NONE', ( #40, #259, #329, #33, #384, #160, #177, #324, #341, #189 ) ) ;
#234 = CARTESIAN_POINT ( 'NONE',  ( -64.00000000000000000, -6.919254415182545337E-15, 0.000000000000000000 ) ) ;
#235 = ORIENTED_EDGE ( 'NONE', *, *, #295, .F. ) ;
#236 = DIRECTION ( 'NONE',  ( -2.551347498223652618E-17, 1.000000000000000000, 0.000000000000000000 ) ) ;
#237 = VERTEX_POINT ( 'NONE', #242 ) ;
#238 = FACE_OUTER_BOUND ( 'NONE', #287, .T. ) ;
#239 = APPLICATION_CONTEXT ( 'configuration controlled 3d designs of mechanical parts and assemblies' ) ;
#240 = AXIS2_PLACEMENT_3D ( 'NONE', #315, #276, #203 ) ;
#241 = EDGE_LOOP ( 'NONE', ( #261, #358, #370, #305 ) ) ;
#242 = CARTESIAN_POINT ( 'NONE',  ( -1.224646799147353454E-16, 4.000000000000000000, 0.000000000000000000 ) ) ;
#243 = PRODUCT_RELATED_PRODUCT_CATEGORY ( 'detail', '', ( #260 ) ) ;
#244 = CONICAL_SURFACE ( 'NONE', #81, 3.999999999999999112, 0.7853981633974512766 ) ;
#245 = PERSON_AND_ORGANIZATION ( #392, #10 ) ;
#246 = AXIS2_PLACEMENT_3D ( 'NONE', #11, #254, #258 ) ;
#247 = CARTESIAN_POINT ( 'NONE',  ( 0.000000000000000000, 0.000000000000000000, 0.000000000000000000 ) ) ;
#248 = DIRECTION ( 'NONE',  ( 1.000000000000000000, 1.271748599114559014E-16, -0.000000000000000000 ) ) ;
#249 = DIRECTION ( 'NONE',  ( 0.000000000000000000, 1.000000000000000000, 0.000000000000000000 ) ) ;
#250 = APPROVAL_PERSON_ORGANIZATION ( #161, #7, #104 ) ;
#251 = APPROVAL_STATUS ( 'not_yet_approved' ) ;
#252 = ORIENTED_EDGE ( 'NONE', *, *, #371, .F. ) ;
#253 = DIRECTION ( 'NONE',  ( 1.000000000000000000, 2.551347498223652618E-17, -0.000000000000000000 ) ) ;
#254 = DIRECTION ( 'NONE',  ( 1.000000000000000000, 1.271748599114559014E-16, -0.000000000000000000 ) ) ;
#255 = ORIENTED_EDGE ( 'NONE', *, *, #295, .T. ) ;
#256 = AXIS2_PLACEMENT_3D ( 'NONE', #191, #368, #102 ) ;
#257 = CARTESIAN_POINT ( 'NONE',  ( -12.00000000000000000, -3.061616997868383634E-16, 0.000000000000000000 ) ) ;
#258 = DIRECTION ( 'NONE',  ( 0.000000000000000000, 1.000000000000000000, 0.000000000000000000 ) ) ;
#259 = ADVANCED_FACE ( 'NONE', ( #150 ), #351, .T. ) ;
#260 = PRODUCT ( '358882358898', '358882358898', '', ( #383 ) ) ;
#261 = ORIENTED_EDGE ( 'NONE', *, *, #264, .T. ) ;
#262 = SHAPE_DEFINITION_REPRESENTATION ( #376, #404 ) ;
#263 = DIRECTION ( 'NONE',  ( -1.000000000000000000, -1.271748599114559014E-16, 0.000000000000000000 ) ) ;
#264 = EDGE_CURVE ( 'NONE', #162, #105, #286, .T. ) ;
#265 = APPROVAL_DATE_TIME ( #59, #230 ) ;
#266 = DIRECTION ( 'NONE',  ( -0.9659258262890703106, 0.2588190451025129679, 3.169619151431670648E-17 ) ) ;
#267 = CARTESIAN_POINT ( 'NONE',  ( -2.041077998578922834E-17, -5.207499245353674245E-34, 0.000000000000000000 ) ) ;
#268 = CC_DESIGN_DATE_AND_TIME_ASSIGNMENT ( #140, #18, ( #210 ) ) ;
#269 = DATE_AND_TIME ( #49, #218 ) ;
#270 = DIRECTION ( 'NONE',  ( 1.000000000000000000, 1.271748599114559014E-16, -0.000000000000000000 ) ) ;
#271 = CARTESIAN_POINT ( 'NONE',  ( -12.00000000000000000, -3.061616997868383141E-16, 0.000000000000000000 ) ) ;
#272 = VECTOR ( 'NONE', #281, 1000.000000000000000 ) ;
#273 = PLANE ( 'NONE',  #31 ) ;
#274 = PERSON_AND_ORGANIZATION ( #392, #10 ) ;
#275 = EDGE_LOOP ( 'NONE', ( #202, #14, #77, #334 ) ) ;
#276 = DIRECTION ( 'NONE',  ( 1.000000000000000000, 1.271748599114559014E-16, -0.000000000000000000 ) ) ;
#277 = VECTOR ( 'NONE', #356, 1000.000000000000000 ) ;
#278 = FACE_OUTER_BOUND ( 'NONE', #241, .T. ) ;
#279 = EDGE_CURVE ( 'NONE', #162, #79, #155, .T. ) ;
#280 = DIRECTION ( 'NONE',  ( 0.000000000000000000, -1.000000000000000000, 0.000000000000000000 ) ) ;
#281 = DIRECTION ( 'NONE',  ( 1.000000000000000000, 1.271748599114559014E-16, -0.000000000000000000 ) ) ;
#282 = CC_DESIGN_APPROVAL ( #7, ( #180 ) ) ;
#283 = DIRECTION ( 'NONE',  ( 1.000000000000000000, 1.271748599114559014E-16, -0.000000000000000000 ) ) ;
#284 = DIRECTION ( 'NONE',  ( 0.000000000000000000, 1.000000000000000000, 0.000000000000000000 ) ) ;
#285 = CARTESIAN_POINT ( 'NONE',  ( -24.00000000000000000, -1.832260018724308885E-15, 0.000000000000000000 ) ) ;
#286 = CIRCLE ( 'NONE', #148, 3.199999999999999289 ) ;
#287 = EDGE_LOOP ( 'NONE', ( #223, #413, #136, #172 ) ) ;
#288 = DATE_TIME_ROLE ( 'creation_date' ) ;
#289 = EDGE_LOOP ( 'NONE', ( #374, #343, #19, #142 ) ) ;
#290 = APPROVAL_DATE_TIME ( #353, #151 ) ;
#291 = CARTESIAN_POINT ( 'NONE',  ( -12.00000000000000000, 3.749999999999998668, 0.000000000000000000 ) ) ;
#292 = CIRCLE ( 'NONE', #410, 3.750000000000000000 ) ;
#293 = ORIENTED_EDGE ( 'NONE', *, *, #35, .F. ) ;
#294 = CIRCLE ( 'NONE', #386, 4.000000000000000000 ) ;
#295 = EDGE_CURVE ( 'NONE', #365, #82, #17, .T. ) ;
#296 = PERSON_AND_ORGANIZATION_ROLE ( 'design_supplier' ) ;
#297 = EDGE_CURVE ( 'NONE', #119, #365, #147, .T. ) ;
#298 = AXIS2_PLACEMENT_3D ( 'NONE', #192, #16, #222 ) ;
#299 = AXIS2_PLACEMENT_3D ( 'NONE', #247, #391, #8 ) ;
#300 = PERSON_AND_ORGANIZATION ( #392, #10 ) ;
#301 = LINE ( 'NONE', #309, #362 ) ;
#302 = DIRECTION ( 'NONE',  ( 1.271748599114559014E-16, -1.000000000000000000, 0.000000000000000000 ) ) ;
#303 = MANIFOLD_SOLID_BREP ( 'Révolution1', #233 ) ;
#304 = CARTESIAN_POINT ( 'NONE',  ( -12.00000000000000000, -3.061616997868383141E-16, 0.000000000000000000 ) ) ;
#305 = ORIENTED_EDGE ( 'NONE', *, *, #279, .F. ) ;
#306 = CARTESIAN_POINT ( 'NONE',  ( -64.00000000000000000, -6.919254415182545337E-15, 0.000000000000000000 ) ) ;
#307 = DIRECTION ( 'NONE',  ( 0.000000000000000000, 1.000000000000000000, 0.000000000000000000 ) ) ;
#308 = CALENDAR_DATE ( 2022, 1, 6 ) ;
#309 = CARTESIAN_POINT ( 'NONE',  ( -24.00000000000000000, 3.749999999999997780, 4.592425496802573972E-16 ) ) ;
#310 = DIRECTION ( 'NONE',  ( 1.000000000000000000, 2.551347498223652618E-17, -0.000000000000000000 ) ) ;
#311 = EDGE_CURVE ( 'NONE', #119, #79, #165, .T. ) ;
#312 = VERTEX_POINT ( 'NONE', #94 ) ;
#313 = LINE ( 'NONE', #83, #326 ) ;
#314 = DIRECTION ( 'NONE',  ( 1.000000000000000000, 1.271748599114559014E-16, -0.000000000000000000 ) ) ;
#315 = CARTESIAN_POINT ( 'NONE',  ( -12.00000000000000000, -3.061616997868383634E-16, 0.000000000000000000 ) ) ;
#316 = CC_DESIGN_SECURITY_CLASSIFICATION ( #210, ( #180 ) ) ;
#317 = CC_DESIGN_PERSON_AND_ORGANIZATION_ASSIGNMENT ( #190, #325, ( #212 ) ) ;
#318 = APPLICATION_PROTOCOL_DEFINITION ( 'international standard', 'config_control_design', 1994, #239 ) ;
#319 = AXIS2_PLACEMENT_3D ( 'NONE', #68, #20, #57 ) ;
#320 = EDGE_CURVE ( 'NONE', #237, #394, #159, .T. ) ;
#321 = EDGE_LOOP ( 'NONE', ( #336, #45 ) ) ;
#322 = APPLICATION_PROTOCOL_DEFINITION ( 'international standard', 'config_control_design', 1994, #208 ) ;
#323 = ORIENTED_EDGE ( 'NONE', *, *, #37, .T. ) ;
#324 = ADVANCED_FACE ( 'NONE', ( #207 ), #113, .T. ) ;
#325 = PERSON_AND_ORGANIZATION_ROLE ( 'creator' ) ;
#326 = VECTOR ( 'NONE', #197, 1000.000000000000000 ) ;
#327 = ORIENTED_EDGE ( 'NONE', *, *, #311, .T. ) ;
#328 = DIRECTION ( 'NONE',  ( 0.000000000000000000, 1.000000000000000000, 0.000000000000000000 ) ) ;
#329 = ADVANCED_FACE ( 'NONE', ( #121 ), #349, .T. ) ;
#330 = CARTESIAN_POINT ( 'NONE',  ( -1.020538999289461170E-16, 4.000000000000000000, 0.000000000000000000 ) ) ;
#331 = PERSON_AND_ORGANIZATION ( #392, #10 ) ;
#332 = PERSON_AND_ORGANIZATION_ROLE ( 'classification_officer' ) ;
#333 = EDGE_CURVE ( 'NONE', #41, #390, #50, .T. ) ;
#334 = ORIENTED_EDGE ( 'NONE', *, *, #311, .F. ) ;
#335 = APPROVAL_PERSON_ORGANIZATION ( #145, #230, #114 ) ;
#336 = ORIENTED_EDGE ( 'NONE', *, *, #264, .F. ) ;
#337 = LINE ( 'NONE', #61, #126 ) ;
#338 = CARTESIAN_POINT ( 'NONE',  ( -64.00000000000000000, -6.919254415182545337E-15, 0.000000000000000000 ) ) ;
#339 = ORIENTED_EDGE ( 'NONE', *, *, #127, .F. ) ;
#340 = DIRECTION ( 'NONE',  ( 1.000000000000000000, 2.551347498223652618E-17, -0.000000000000000000 ) ) ;
#341 = ADVANCED_FACE ( 'NONE', ( #116 ), #407, .T. ) ;
#342 = UNCERTAINTY_MEASURE_WITH_UNIT (LENGTH_MEASURE( 1.000000000000000082E-05 ), #71, 'distance_accuracy_value', 'NONE');
#343 = ORIENTED_EDGE ( 'NONE', *, *, #111, .T. ) ;
#344 = DIRECTION ( 'NONE',  ( 1.000000000000000000, 2.551347498223652618E-17, -0.000000000000000000 ) ) ;
#345 = AXIS2_PLACEMENT_3D ( 'NONE', #257, #106, #328 ) ;
#346 = CARTESIAN_POINT ( 'NONE',  ( -63.20000000000000284, -6.817514527253381760E-15, 0.000000000000000000 ) ) ;
#347 = CARTESIAN_POINT ( 'NONE',  ( -63.20000000000000284, -6.817514527253381760E-15, 0.000000000000000000 ) ) ;
#348 = CIRCLE ( 'NONE', #47, 3.999999999999999112 ) ;
#349 = CYLINDRICAL_SURFACE ( 'NONE', #319, 3.999999999999996447 ) ;
#350 = CC_DESIGN_DATE_AND_TIME_ASSIGNMENT ( #75, #288, ( #212 ) ) ;
#351 = CONICAL_SURFACE ( 'NONE', #92, 3.749999999999999556, 0.2617993877991414697 ) ;
#352 = CONICAL_SURFACE ( 'NONE', #167, 3.999999999999999112, 0.7853981633974512766 ) ;
#353 = DATE_AND_TIME ( #158, #124 ) ;
#354 = VECTOR ( 'NONE', #73, 1000.000000000000000 ) ;
#355 = AXIS2_PLACEMENT_3D ( 'NONE', #87, #344, #1 ) ;
#356 = DIRECTION ( 'NONE',  ( 1.000000000000000000, 2.551347498223652618E-17, -0.000000000000000000 ) ) ;
#357 = ORIENTED_EDGE ( 'NONE', *, *, #127, .T. ) ;
#358 = ORIENTED_EDGE ( 'NONE', *, *, #157, .T. ) ;
#359 = DIRECTION ( 'NONE',  ( 0.7071067811865455743, -0.7071067811865495711, 8.659560562354958743E-17 ) ) ;
#360 =( GEOMETRIC_REPRESENTATION_CONTEXT ( 3 ) GLOBAL_UNCERTAINTY_ASSIGNED_CONTEXT ( ( #342 ) ) GLOBAL_UNIT_ASSIGNED_CONTEXT ( ( #71, #101, #39 ) ) REPRESENTATION_CONTEXT ( 'NONE', 'WORKASPACE' ) );
#361 = ORIENTED_EDGE ( 'NONE', *, *, #9, .F. ) ;
#362 = VECTOR ( 'NONE', #266, 1000.000000000000227 ) ;
#363 = ORIENTED_EDGE ( 'NONE', *, *, #70, .T. ) ;
#364 = CARTESIAN_POINT ( 'NONE',  ( -24.00000000000000000, 3.749999999999998224, 4.745506346695989949E-16 ) ) ;
#365 = VERTEX_POINT ( 'NONE', #367 ) ;
#366 = APPROVAL_PERSON_ORGANIZATION ( #5, #151, #36 ) ;
#367 = CARTESIAN_POINT ( 'NONE',  ( -24.93301270189222762, -3.999999999999995559, 4.898587196589407898E-16 ) ) ;
#368 = DIRECTION ( 'NONE',  ( 1.000000000000000000, 2.551347498223652618E-17, -0.000000000000000000 ) ) ;
#369 = COORDINATED_UNIVERSAL_TIME_OFFSET ( 1, 0, .AHEAD. ) ;
#370 = ORIENTED_EDGE ( 'NONE', *, *, #64, .F. ) ;
#371 = EDGE_CURVE ( 'NONE', #79, #82, #313, .T. ) ;
#372 = FACE_OUTER_BOUND ( 'NONE', #377, .T. ) ;
#373 = AXIS2_PLACEMENT_3D ( 'NONE', #58, #26, #249 ) ;
#374 = ORIENTED_EDGE ( 'NONE', *, *, #98, .F. ) ;
#375 = CARTESIAN_POINT ( 'NONE',  ( -63.20000000000000284, 3.999999999999992450, 0.000000000000000000 ) ) ;
#376 = PRODUCT_DEFINITION_SHAPE ( 'NONE', 'NONE',  #212 ) ;
#377 = EDGE_LOOP ( 'NONE', ( #80, #149 ) ) ;
#378 = DIRECTION ( 'NONE',  ( 0.000000000000000000, -1.000000000000000000, 0.000000000000000000 ) ) ;
#379 = EDGE_CURVE ( 'NONE', #312, #365, #337, .T. ) ;
#380 = DIRECTION ( 'NONE',  ( 0.000000000000000000, 1.000000000000000000, 0.000000000000000000 ) ) ;
#381 = DIRECTION ( 'NONE',  ( 0.000000000000000000, 1.000000000000000000, 0.000000000000000000 ) ) ;
#382 = CIRCLE ( 'NONE', #195, 3.750000000000000000 ) ;
#383 = MECHANICAL_CONTEXT ( 'NONE', #208, 'mechanical' ) ;
#384 = ADVANCED_FACE ( 'NONE', ( #176 ), #24, .T. ) ;
#385 = PERSON_AND_ORGANIZATION_ROLE ( 'design_owner' ) ;
#386 = AXIS2_PLACEMENT_3D ( 'NONE', #44, #174, #84 ) ;
#387 = APPROVAL_STATUS ( 'not_yet_approved' ) ;
#388 = ADVANCED_FACE ( 'NONE', ( #372 ), #201, .T. ) ;
#389 = CC_DESIGN_APPROVAL ( #230, ( #210 ) ) ;
#390 = VERTEX_POINT ( 'NONE', #89 ) ;
#391 = DIRECTION ( 'NONE',  ( 0.000000000000000000, 0.000000000000000000, 1.000000000000000000 ) ) ;
#392 = PERSON ( 'UNSPECIFIED', 'UNSPECIFIED', 'UNSPECIFIED', ('UNSPECIFIED'), ('UNSPECIFIED'), ('UNSPECIFIED') ) ;
#393 = CIRCLE ( 'NONE', #256, 4.000000000000000888 ) ;
#394 = VERTEX_POINT ( 'NONE', #38 ) ;
#395 = CARTESIAN_POINT ( 'NONE',  ( 1.020538999289461170E-16, -4.000000000000000000, 4.898587196589412829E-16 ) ) ;
#396 = ORIENTED_EDGE ( 'NONE', *, *, #103, .F. ) ;
#397 = ORIENTED_EDGE ( 'NONE', *, *, #90, .F. ) ;
#398 = EDGE_CURVE ( 'NONE', #175, #312, #382, .T. ) ;
#399 = DIRECTION ( 'NONE',  ( 1.000000000000000000, 1.271748599114559014E-16, -0.000000000000000000 ) ) ;
#400 = ORIENTED_EDGE ( 'NONE', *, *, #333, .F. ) ;
#401 = DIRECTION ( 'NONE',  ( 0.000000000000000000, 1.000000000000000000, 0.000000000000000000 ) ) ;
#402 = FACE_OUTER_BOUND ( 'NONE', #110, .T. ) ;
#403 = CARTESIAN_POINT ( 'NONE',  ( -12.00000000000000000, -3.999999999999996447, 4.898587196589408884E-16 ) ) ;
#404 = ADVANCED_BREP_SHAPE_REPRESENTATION ( '358882358898', ( #303, #168, #299 ), #360 ) ;
#405 = APPROVAL_STATUS ( 'not_yet_approved' ) ;
#406 = DIRECTION ( 'NONE',  ( 1.000000000000000000, 1.271748599114559014E-16, -0.000000000000000000 ) ) ;
#407 = CONICAL_SURFACE ( 'NONE', #95, 3.749999999999999556, 0.2617993877991414697 ) ;
#408 = DIRECTION ( 'NONE',  ( 1.000000000000000000, 1.271748599114559014E-16, -0.000000000000000000 ) ) ;
#409 = EDGE_LOOP ( 'NONE', ( #361, #42, #363, #339 ) ) ;
#410 = AXIS2_PLACEMENT_3D ( 'NONE', #60, #314, #115 ) ;
#411 = DIRECTION ( 'NONE',  ( -0.9659258262890703106, -0.2588190451025131900, 0.000000000000000000 ) ) ;
#412 = CIRCLE ( 'NONE', #373, 3.749999999999998668 ) ;
#413 = ORIENTED_EDGE ( 'NONE', *, *, #98, .T. ) ;
ENDSEC;
END-ISO-10303-21;
