ISO-10303-21;
HEADER;
FILE_DESCRIPTION (( 'STEP AP203' ),
    '1' );
FILE_NAME ('358882358895.step',
    '2022-06-01T11:23:47',
    ( '' ),
    ( '' ),
    'SwSTEP 2.0',
    'SolidWorks 2019',
    '' );
FILE_SCHEMA (( 'CONFIG_CONTROL_DESIGN' ));
ENDSEC;

DATA;
#1 = CARTESIAN_POINT ( 'NONE',  ( -9.500000000000000000, 3.000000000000000000, 0.000000000000000000 ) ) ;
#2 = CARTESIAN_POINT ( 'NONE',  ( -18.93301270189222407, 2.999999999999993783, 0.000000000000000000 ) ) ;
#3 = ORIENTED_EDGE ( 'NONE', *, *, #80, .T. ) ;
#4 = DIRECTION ( 'NONE',  ( 1.000000000000000000, 2.578203787678637958E-17, -0.000000000000000000 ) ) ;
#5 = ADVANCED_FACE ( 'NONE', ( #203 ), #174, .T. ) ;
#6 = DATE_TIME_ROLE ( 'classification_date' ) ;
#7 = VERTEX_POINT ( 'NONE', #271 ) ;
#8 = CC_DESIGN_APPROVAL ( #371, ( #65 ) ) ;
#9 = APPROVAL_ROLE ( '' ) ;
#10 = AXIS2_PLACEMENT_3D ( 'NONE', #68, #316, #211 ) ;
#11 = SECURITY_CLASSIFICATION_LEVEL ( 'unclassified' ) ;
#12 = VERTEX_POINT ( 'NONE', #401 ) ;
#13 = CYLINDRICAL_SURFACE ( 'NONE', #146, 3.000000000000000000 ) ;
#14 = VECTOR ( 'NONE', #245, 1000.000000000000114 ) ;
#15 = CARTESIAN_POINT ( 'NONE',  ( -9.500000000000000000, -2.999999999999997780, 3.673940397442056417E-16 ) ) ;
#16 = VERTEX_POINT ( 'NONE', #239 ) ;
#17 = DIRECTION ( 'NONE',  ( 1.000000000000000000, 1.224646799147353207E-16, -0.000000000000000000 ) ) ;
#18 = EDGE_CURVE ( 'NONE', #7, #36, #114, .T. ) ;
#19 = PRODUCT_RELATED_PRODUCT_CATEGORY ( 'detail', '', ( #376 ) ) ;
#20 = ORIENTED_EDGE ( 'NONE', *, *, #248, .T. ) ;
#21 =( GEOMETRIC_REPRESENTATION_CONTEXT ( 3 ) GLOBAL_UNCERTAINTY_ASSIGNED_CONTEXT ( ( #409 ) ) GLOBAL_UNIT_ASSIGNED_CONTEXT ( ( #277, #158, #374 ) ) REPRESENTATION_CONTEXT ( 'NONE', 'WORKASPACE' ) );
#22 = ORIENTED_EDGE ( 'NONE', *, *, #400, .T. ) ;
#23 = APPLICATION_CONTEXT ( 'configuration controlled 3d designs of mechanical parts and assemblies' ) ;
#24 = CARTESIAN_POINT ( 'NONE',  ( -18.93301270189222407, -2.999999999999996447, 3.673940397442054938E-16 ) ) ;
#25 = CARTESIAN_POINT ( 'NONE',  ( -9.500000000000000000, -2.449293598294705921E-16, 0.000000000000000000 ) ) ;
#26 = DIRECTION ( 'NONE',  ( 1.000000000000000000, 1.224646799147353207E-16, -0.000000000000000000 ) ) ;
#27 = DIRECTION ( 'NONE',  ( 1.000000000000000000, 1.224646799147353207E-16, -0.000000000000000000 ) ) ;
#28 = DIRECTION ( 'NONE',  ( 0.000000000000000000, 1.000000000000000000, 0.000000000000000000 ) ) ;
#29 = MANIFOLD_SOLID_BREP ( 'Révolution1', #237 ) ;
#30 = DIRECTION ( 'NONE',  ( 1.000000000000000000, 1.224646799147353207E-16, -0.000000000000000000 ) ) ;
#31 = CARTESIAN_POINT ( 'NONE',  ( 1.611377367299146913E-17, 4.154459231750291612E-34, 0.000000000000000000 ) ) ;
#32 = AXIS2_PLACEMENT_3D ( 'NONE', #234, #339, #228 ) ;
#33 = CARTESIAN_POINT ( 'NONE',  ( 1.611377367299146913E-17, 4.154459231750291612E-34, 0.000000000000000000 ) ) ;
#34 = DIRECTION ( 'NONE',  ( 1.000000000000000000, 1.224646799147353207E-16, -0.000000000000000000 ) ) ;
#35 = CARTESIAN_POINT ( 'NONE',  ( -9.500000000000000000, 2.749999999999998668, 0.000000000000000000 ) ) ;
#36 = VERTEX_POINT ( 'NONE', #298 ) ;
#37 = DIRECTION ( 'NONE',  ( 0.000000000000000000, 1.000000000000000000, 0.000000000000000000 ) ) ;
#38 = ORIENTED_EDGE ( 'NONE', *, *, #18, .T. ) ;
#39 = CIRCLE ( 'NONE', #395, 3.000000000000000000 ) ;
#40 = CC_DESIGN_DATE_AND_TIME_ASSIGNMENT ( #260, #6, ( #65 ) ) ;
#41 = MANIFOLD_SOLID_BREP ( 'Révolution2', #95 ) ;
#42 = PERSON_AND_ORGANIZATION_ROLE ( 'creator' ) ;
#43 = ORIENTED_EDGE ( 'NONE', *, *, #247, .F. ) ;
#44 = ORIENTED_EDGE ( 'NONE', *, *, #293, .T. ) ;
#45 = CIRCLE ( 'NONE', #189, 3.000000000000000000 ) ;
#46 = CALENDAR_DATE ( 2022, 1, 6 ) ;
#47 = ORIENTED_EDGE ( 'NONE', *, *, #177, .F. ) ;
#48 = AXIS2_PLACEMENT_3D ( 'NONE', #171, #295, #201 ) ;
#49 = PERSON_AND_ORGANIZATION ( #227, #344 ) ;
#50 = FACE_OUTER_BOUND ( 'NONE', #173, .T. ) ;
#51 = ORIENTED_EDGE ( 'NONE', *, *, #221, .F. ) ;
#52 = CC_DESIGN_SECURITY_CLASSIFICATION ( #65, ( #270 ) ) ;
#53 = DIRECTION ( 'NONE',  ( 0.000000000000000000, 1.000000000000000000, 0.000000000000000000 ) ) ;
#54 = ORIENTED_EDGE ( 'NONE', *, *, #352, .F. ) ;
#55 = ADVANCED_FACE ( 'NONE', ( #111 ), #13, .T. ) ;
#56 = AXIS2_PLACEMENT_3D ( 'NONE', #136, #148, #369 ) ;
#57 = ORIENTED_EDGE ( 'NONE', *, *, #402, .F. ) ;
#58 = ORIENTED_EDGE ( 'NONE', *, *, #177, .T. ) ;
#59 = LOCAL_TIME ( 13, 23, 47.00000000000000000, #225 ) ;
#60 = DIRECTION ( 'NONE',  ( 1.000000000000000000, 1.224646799147353207E-16, -0.000000000000000000 ) ) ;
#61 = DIRECTION ( 'NONE',  ( 1.000000000000000000, 1.224646799147353207E-16, -0.000000000000000000 ) ) ;
#62 = DIRECTION ( 'NONE',  ( 1.000000000000000000, 2.578203787678637958E-17, -0.000000000000000000 ) ) ;
#63 = CYLINDRICAL_SURFACE ( 'NONE', #365, 2.749999999999999112 ) ;
#64 = CARTESIAN_POINT ( 'NONE',  ( -18.00000000000000000, -1.285879139104720633E-15, 0.000000000000000000 ) ) ;
#65 = SECURITY_CLASSIFICATION ( '', '', #11 ) ;
#66 = ADVANCED_FACE ( 'NONE', ( #50 ), #142, .T. ) ;
#67 = CARTESIAN_POINT ( 'NONE',  ( -63.39999999999999858, 2.999999999999993339, 0.000000000000000000 ) ) ;
#68 = CARTESIAN_POINT ( 'NONE',  ( -18.93301270189222407, -1.400140240998334305E-15, 0.000000000000000000 ) ) ;
#69 = LINE ( 'NONE', #217, #346 ) ;
#70 = ORIENTED_EDGE ( 'NONE', *, *, #247, .T. ) ;
#71 = PERSON_AND_ORGANIZATION_ROLE ( 'design_supplier' ) ;
#72 = VERTEX_POINT ( 'NONE', #233 ) ;
#73 = PERSON_AND_ORGANIZATION ( #227, #344 ) ;
#74 = AXIS2_PLACEMENT_3D ( 'NONE', #214, #188, #124 ) ;
#75 = CARTESIAN_POINT ( 'NONE',  ( -9.500000000000000000, -2.449293598294705921E-16, 0.000000000000000000 ) ) ;
#76 = VECTOR ( 'NONE', #238, 1000.000000000000000 ) ;
#77 = COORDINATED_UNIVERSAL_TIME_OFFSET ( 1, 0, .AHEAD. ) ;
#78 = DIRECTION ( 'NONE',  ( -2.578203787678637958E-17, 1.000000000000000000, 0.000000000000000000 ) ) ;
#79 = DIRECTION ( 'NONE',  ( 0.000000000000000000, 1.000000000000000000, 0.000000000000000000 ) ) ;
#80 = EDGE_CURVE ( 'NONE', #83, #231, #160, .T. ) ;
#81 = CARTESIAN_POINT ( 'NONE',  ( -9.500000000000000000, -2.449293598294705428E-16, 0.000000000000000000 ) ) ;
#82 = ORIENTED_EDGE ( 'NONE', *, *, #384, .T. ) ;
#83 = VERTEX_POINT ( 'NONE', #398 ) ;
#84 = DIRECTION ( 'NONE',  ( -2.578203787678637958E-17, 1.000000000000000000, 0.000000000000000000 ) ) ;
#85 = DIRECTION ( 'NONE',  ( 1.000000000000000000, 2.578203787678637958E-17, -0.000000000000000000 ) ) ;
#86 = DIRECTION ( 'NONE',  ( 1.000000000000000000, 1.224646799147353207E-16, -0.000000000000000000 ) ) ;
#87 = CONICAL_SURFACE ( 'NONE', #139, 2.749999999999999556, 0.2617993877991433016 ) ;
#88 = CIRCLE ( 'NONE', #373, 3.000000000000000444 ) ;
#89 = DIRECTION ( 'NONE',  ( 2.578203787678637958E-17, -1.000000000000000000, 0.000000000000000000 ) ) ;
#90 = CARTESIAN_POINT ( 'NONE',  ( -63.39999999999999858, -3.000000000000007550, 3.673940397442060361E-16 ) ) ;
#91 = EDGE_CURVE ( 'NONE', #223, #135, #175, .T. ) ;
#92 = ADVANCED_FACE ( 'NONE', ( #338 ), #301, .T. ) ;
#93 = CARTESIAN_POINT ( 'NONE',  ( -9.500000000000000000, -2.449293598294705921E-16, 0.000000000000000000 ) ) ;
#94 = DIRECTION ( 'NONE',  ( 0.000000000000000000, 1.000000000000000000, 0.000000000000000000 ) ) ;
#95 = CLOSED_SHELL ( 'NONE', ( #206, #5, #326, #55 ) ) ;
#96 = LINE ( 'NONE', #35, #327 ) ;
#97 = VECTOR ( 'NONE', #62, 1000.000000000000000 ) ;
#98 = ORIENTED_EDGE ( 'NONE', *, *, #118, .T. ) ;
#99 = PERSON_AND_ORGANIZATION ( #227, #344 ) ;
#100 = AXIS2_PLACEMENT_3D ( 'NONE', #64, #179, #413 ) ;
#101 = AXIS2_PLACEMENT_3D ( 'NONE', #267, #202, #112 ) ;
#102 = PERSON_AND_ORGANIZATION ( #227, #344 ) ;
#103 = ORIENTED_EDGE ( 'NONE', *, *, #18, .F. ) ;
#104 = CC_DESIGN_PERSON_AND_ORGANIZATION_ASSIGNMENT ( #49, #71, ( #270 ) ) ;
#105 = EDGE_CURVE ( 'NONE', #381, #16, #184, .T. ) ;
#106 = SHAPE_DEFINITION_REPRESENTATION ( #314, #403 ) ;
#107 = DIRECTION ( 'NONE',  ( 1.000000000000000000, 1.224646799147353207E-16, -0.000000000000000000 ) ) ;
#108 = CARTESIAN_POINT ( 'NONE',  ( 7.734611363035913565E-17, -3.000000000000000000, 3.673940397442059868E-16 ) ) ;
#109 = APPROVAL_STATUS ( 'not_yet_approved' ) ;
#110 = CARTESIAN_POINT ( 'NONE',  ( -63.39999999999999858, -6.845775607233704406E-15, 0.000000000000000000 ) ) ;
#111 = FACE_OUTER_BOUND ( 'NONE', #218, .T. ) ;
#112 = DIRECTION ( 'NONE',  ( 0.000000000000000000, 1.000000000000000000, 0.000000000000000000 ) ) ;
#113 = AXIS2_PLACEMENT_3D ( 'NONE', #317, #251, #28 ) ;
#114 = LINE ( 'NONE', #108, #76 ) ;
#115 = CARTESIAN_POINT ( 'NONE',  ( -18.00000000000000000, -2.750000000000000888, 0.000000000000000000 ) ) ;
#116 = LOCAL_TIME ( 13, 23, 47.00000000000000000, #77 ) ;
#117 = CARTESIAN_POINT ( 'NONE',  ( -9.500000000000000000, -2.449293598294705921E-16, 0.000000000000000000 ) ) ;
#118 = EDGE_CURVE ( 'NONE', #226, #252, #405, .T. ) ;
#119 = VECTOR ( 'NONE', #274, 1000.000000000000000 ) ;
#120 = CIRCLE ( 'NONE', #32, 2.749999999999998668 ) ;
#121 = CC_DESIGN_PERSON_AND_ORGANIZATION_ASSIGNMENT ( #73, #350, ( #235 ) ) ;
#122 = FACE_OUTER_BOUND ( 'NONE', #145, .T. ) ;
#123 = CYLINDRICAL_SURFACE ( 'NONE', #265, 3.000000000000000000 ) ;
#124 = DIRECTION ( 'NONE',  ( 0.000000000000000000, 1.000000000000000000, 0.000000000000000000 ) ) ;
#125 = CARTESIAN_POINT ( 'NONE',  ( 0.000000000000000000, 0.000000000000000000, 0.000000000000000000 ) ) ;
#126 = ORIENTED_EDGE ( 'NONE', *, *, #402, .T. ) ;
#127 = DIRECTION ( 'NONE',  ( -2.578203787678637958E-17, 1.000000000000000000, 0.000000000000000000 ) ) ;
#128 = PERSON_AND_ORGANIZATION ( #227, #344 ) ;
#129 = LOCAL_TIME ( 13, 23, 47.00000000000000000, #321 ) ;
#130 = EDGE_LOOP ( 'NONE', ( #363, #364, #390, #207 ) ) ;
#131 = PERSON_AND_ORGANIZATION ( #227, #344 ) ;
#132 = EDGE_CURVE ( 'NONE', #12, #226, #349, .T. ) ;
#133 = ADVANCED_FACE ( 'NONE', ( #212 ), #411, .T. ) ;
#134 = VERTEX_POINT ( 'NONE', #187 ) ;
#135 = VERTEX_POINT ( 'NONE', #2 ) ;
#136 = CARTESIAN_POINT ( 'NONE',  ( -9.500000000000000000, -2.449293598294705921E-16, 0.000000000000000000 ) ) ;
#137 = ORIENTED_EDGE ( 'NONE', *, *, #341, .F. ) ;
#138 = PERSON_AND_ORGANIZATION_ROLE ( 'design_owner' ) ;
#139 = AXIS2_PLACEMENT_3D ( 'NONE', #147, #244, #375 ) ;
#140 = VECTOR ( 'NONE', #107, 1000.000000000000000 ) ;
#141 = CYLINDRICAL_SURFACE ( 'NONE', #56, 2.999999999999997335 ) ;
#142 = PLANE ( 'NONE',  #48 ) ;
#143 = EDGE_LOOP ( 'NONE', ( #44, #264, #388, #259 ) ) ;
#144 = APPROVAL_PERSON_ORGANIZATION ( #131, #342, #191 ) ;
#145 = EDGE_LOOP ( 'NONE', ( #304, #333, #58, #379 ) ) ;
#146 = AXIS2_PLACEMENT_3D ( 'NONE', #367, #302, #199 ) ;
#147 = CARTESIAN_POINT ( 'NONE',  ( -18.00000000000000000, -1.285879139104720633E-15, 0.000000000000000000 ) ) ;
#148 = DIRECTION ( 'NONE',  ( 1.000000000000000000, 1.224646799147353207E-16, -0.000000000000000000 ) ) ;
#149 = CYLINDRICAL_SURFACE ( 'NONE', #209, 2.999999999999997335 ) ;
#150 = ADVANCED_FACE ( 'NONE', ( #407 ), #246, .T. ) ;
#151 = LOCAL_TIME ( 13, 23, 47.00000000000000000, #164 ) ;
#152 = DIRECTION ( 'NONE',  ( 1.000000000000000000, 1.224646799147353207E-16, -0.000000000000000000 ) ) ;
#153 = DIRECTION ( 'NONE',  ( 1.000000000000000000, 1.224646799147353207E-16, -0.000000000000000000 ) ) ;
#154 = AXIS2_PLACEMENT_3D ( 'NONE', #343, #34, #186 ) ;
#155 = CIRCLE ( 'NONE', #101, 3.000000000000000444 ) ;
#156 = DIRECTION ( 'NONE',  ( -2.578203787678637958E-17, 1.000000000000000000, 0.000000000000000000 ) ) ;
#157 = DIRECTION ( 'NONE',  ( -0.9659258262890699775, 0.2588190451025147443, 3.169619151431693451E-17 ) ) ;
#158 =( NAMED_UNIT ( * ) PLANE_ANGLE_UNIT ( ) SI_UNIT ( $, .RADIAN. ) );
#159 = ORIENTED_EDGE ( 'NONE', *, *, #165, .T. ) ;
#160 = CIRCLE ( 'NONE', #272, 2.749999999999998668 ) ;
#161 = PERSON_AND_ORGANIZATION ( #227, #344 ) ;
#162 = ORIENTED_EDGE ( 'NONE', *, *, #91, .F. ) ;
#163 = APPROVAL ( #109, 'UNSPECIFIED' ) ;
#164 = COORDINATED_UNIVERSAL_TIME_OFFSET ( 1, 0, .AHEAD. ) ;
#165 = EDGE_CURVE ( 'NONE', #226, #12, #335, .T. ) ;
#166 = AXIS2_PLACEMENT_3D ( 'NONE', #243, #276, #89 ) ;
#167 = ORIENTED_EDGE ( 'NONE', *, *, #132, .F. ) ;
#168 = APPROVAL_STATUS ( 'not_yet_approved' ) ;
#169 = ORIENTED_EDGE ( 'NONE', *, *, #195, .F. ) ;
#170 = CALENDAR_DATE ( 2022, 1, 6 ) ;
#171 = CARTESIAN_POINT ( 'NONE',  ( -64.00000000000000000, -6.919254415182545337E-15, 0.000000000000000000 ) ) ;
#172 = MECHANICAL_CONTEXT ( 'NONE', #348, 'mechanical' ) ;
#173 = EDGE_LOOP ( 'NONE', ( #167, #358 ) ) ;
#174 = PLANE ( 'NONE',  #328 ) ;
#175 = CIRCLE ( 'NONE', #10, 2.999999999999995115 ) ;
#176 = CC_DESIGN_PERSON_AND_ORGANIZATION_ASSIGNMENT ( #99, #138, ( #376 ) ) ;
#177 = EDGE_CURVE ( 'NONE', #72, #223, #410, .T. ) ;
#178 = EDGE_LOOP ( 'NONE', ( #3, #330 ) ) ;
#179 = DIRECTION ( 'NONE',  ( -1.000000000000000000, -1.224646799147353207E-16, 0.000000000000000000 ) ) ;
#180 = VECTOR ( 'NONE', #215, 1000.000000000000000 ) ;
#181 = DIRECTION ( 'NONE',  ( 0.000000000000000000, 1.000000000000000000, 0.000000000000000000 ) ) ;
#182 = CARTESIAN_POINT ( 'NONE',  ( -64.00000000000000000, -6.919254415182545337E-15, 0.000000000000000000 ) ) ;
#183 = ADVANCED_FACE ( 'NONE', ( #345 ), #149, .T. ) ;
#184 = LINE ( 'NONE', #340, #97 ) ;
#185 = LINE ( 'NONE', #216, #275 ) ;
#186 = DIRECTION ( 'NONE',  ( 0.000000000000000000, 1.000000000000000000, 0.000000000000000000 ) ) ;
#187 = CARTESIAN_POINT ( 'NONE',  ( -63.39999999999999858, 2.999999999999993339, 0.000000000000000000 ) ) ;
#188 = DIRECTION ( 'NONE',  ( 1.000000000000000000, 1.224646799147353207E-16, -0.000000000000000000 ) ) ;
#189 = AXIS2_PLACEMENT_3D ( 'NONE', #33, #4, #127 ) ;
#190 = ORIENTED_EDGE ( 'NONE', *, *, #370, .T. ) ;
#191 = APPROVAL_ROLE ( '' ) ;
#192 = CIRCLE ( 'NONE', #303, 3.000000000000000444 ) ;
#193 = EDGE_LOOP ( 'NONE', ( #256, #38, #169, #253 ) ) ;
#194 = ADVANCED_FACE ( 'NONE', ( #122 ), #87, .T. ) ;
#195 = EDGE_CURVE ( 'NONE', #16, #36, #39, .T. ) ;
#196 = APPROVAL_STATUS ( 'not_yet_approved' ) ;
#197 = AXIS2_PLACEMENT_3D ( 'NONE', #283, #315, #37 ) ;
#198 = APPROVAL_DATE_TIME ( #257, #163 ) ;
#199 = DIRECTION ( 'NONE',  ( -2.578203787678637958E-17, 1.000000000000000000, 0.000000000000000000 ) ) ;
#200 = APPROVAL_DATE_TIME ( #356, #342 ) ;
#201 = DIRECTION ( 'NONE',  ( 1.224646799147353207E-16, -1.000000000000000000, 0.000000000000000000 ) ) ;
#202 = DIRECTION ( 'NONE',  ( 1.000000000000000000, 1.224646799147353207E-16, -0.000000000000000000 ) ) ;
#203 = FACE_OUTER_BOUND ( 'NONE', #361, .T. ) ;
#204 = EDGE_LOOP ( 'NONE', ( #396, #98, #290, #57 ) ) ;
#205 = CC_DESIGN_DATE_AND_TIME_ASSIGNMENT ( #389, #232, ( #235 ) ) ;
#206 = ADVANCED_FACE ( 'NONE', ( #282 ), #123, .T. ) ;
#207 = ORIENTED_EDGE ( 'NONE', *, *, #406, .F. ) ;
#208 = LINE ( 'NONE', #337, #351 ) ;
#209 = AXIS2_PLACEMENT_3D ( 'NONE', #313, #310, #242 ) ;
#210 = DIRECTION ( 'NONE',  ( -1.224646799147353207E-16, 1.000000000000000000, 0.000000000000000000 ) ) ;
#211 = DIRECTION ( 'NONE',  ( 0.000000000000000000, 1.000000000000000000, 0.000000000000000000 ) ) ;
#212 = FACE_OUTER_BOUND ( 'NONE', #354, .T. ) ;
#213 = LOCAL_TIME ( 13, 23, 47.00000000000000000, #291 ) ;
#214 = CARTESIAN_POINT ( 'NONE',  ( -18.93301270189222407, -1.400140240998334305E-15, 0.000000000000000000 ) ) ;
#215 = DIRECTION ( 'NONE',  ( -0.9659258262890698665, -0.2588190451025149663, 0.000000000000000000 ) ) ;
#216 = CARTESIAN_POINT ( 'NONE',  ( -18.00000000000000000, 2.749999999999998224, 3.367778697655220519E-16 ) ) ;
#217 = CARTESIAN_POINT ( 'NONE',  ( -9.500000000000000000, 2.999999999999996891, 0.000000000000000000 ) ) ;
#218 = EDGE_LOOP ( 'NONE', ( #103, #70, #236, #137 ) ) ;
#219 = DIRECTION ( 'NONE',  ( 1.000000000000000000, 2.578203787678637958E-17, -0.000000000000000000 ) ) ;
#220 = CC_DESIGN_APPROVAL ( #342, ( #270 ) ) ;
#221 = EDGE_CURVE ( 'NONE', #72, #231, #208, .T. ) ;
#222 = CC_DESIGN_PERSON_AND_ORGANIZATION_ASSIGNMENT ( #161, #289, ( #65 ) ) ;
#223 = VERTEX_POINT ( 'NONE', #24 ) ;
#224 = DIRECTION ( 'NONE',  ( 0.000000000000000000, 1.000000000000000000, 0.000000000000000000 ) ) ;
#225 = COORDINATED_UNIVERSAL_TIME_OFFSET ( 1, 0, .AHEAD. ) ;
#226 = VERTEX_POINT ( 'NONE', #273 ) ;
#227 = PERSON ( 'UNSPECIFIED', 'UNSPECIFIED', 'UNSPECIFIED', ('UNSPECIFIED'), ('UNSPECIFIED'), ('UNSPECIFIED') ) ;
#228 = DIRECTION ( 'NONE',  ( 0.000000000000000000, 1.000000000000000000, 0.000000000000000000 ) ) ;
#229 = EDGE_LOOP ( 'NONE', ( #322, #331, #20, #162 ) ) ;
#230 = DIRECTION ( 'NONE',  ( 1.000000000000000000, 0.000000000000000000, 0.000000000000000000 ) ) ;
#231 = VERTEX_POINT ( 'NONE', #240 ) ;
#232 = DATE_TIME_ROLE ( 'creation_date' ) ;
#233 = CARTESIAN_POINT ( 'NONE',  ( -18.00000000000000000, -2.750000000000000888, 0.000000000000000000 ) ) ;
#234 = CARTESIAN_POINT ( 'NONE',  ( -9.500000000000000000, -2.449293598294705428E-16, 0.000000000000000000 ) ) ;
#235 = PRODUCT_DEFINITION ( 'UNKNOWN', '', #270, #353 ) ;
#236 = ORIENTED_EDGE ( 'NONE', *, *, #105, .T. ) ;
#237 = CLOSED_SHELL ( 'NONE', ( #150, #92, #266, #320, #324, #66, #133, #183, #194, #281 ) ) ;
#238 = DIRECTION ( 'NONE',  ( 1.000000000000000000, 2.578203787678637958E-17, -0.000000000000000000 ) ) ;
#239 = CARTESIAN_POINT ( 'NONE',  ( -6.123233995736767268E-17, 3.000000000000000000, 0.000000000000000000 ) ) ;
#240 = CARTESIAN_POINT ( 'NONE',  ( -9.500000000000000000, -2.749999999999999112, 3.367778697655220026E-16 ) ) ;
#241 = FACE_OUTER_BOUND ( 'NONE', #143, .T. ) ;
#242 = DIRECTION ( 'NONE',  ( 0.000000000000000000, 1.000000000000000000, 0.000000000000000000 ) ) ;
#243 = CARTESIAN_POINT ( 'NONE',  ( -9.500000000000000000, -2.449293598294705921E-16, 0.000000000000000000 ) ) ;
#244 = DIRECTION ( 'NONE',  ( -1.000000000000000000, -1.224646799147353207E-16, 0.000000000000000000 ) ) ;
#245 = DIRECTION ( 'NONE',  ( 0.7071067811865493491, 0.7071067811865455743, 0.000000000000000000 ) ) ;
#246 = CYLINDRICAL_SURFACE ( 'NONE', #285, 2.749999999999999112 ) ;
#247 = EDGE_CURVE ( 'NONE', #7, #381, #88, .T. ) ;
#248 = EDGE_CURVE ( 'NONE', #134, #135, #69, .T. ) ;
#249 = DIRECTION ( 'NONE',  ( 1.000000000000000000, 2.578203787678637958E-17, -0.000000000000000000 ) ) ;
#250 = ORIENTED_EDGE ( 'NONE', *, *, #288, .F. ) ;
#251 = DIRECTION ( 'NONE',  ( 1.000000000000000000, 1.224646799147353207E-16, -0.000000000000000000 ) ) ;
#252 = VERTEX_POINT ( 'NONE', #380 ) ;
#253 = ORIENTED_EDGE ( 'NONE', *, *, #105, .F. ) ;
#254 = CALENDAR_DATE ( 2022, 1, 6 ) ;
#255 = AXIS2_PLACEMENT_3D ( 'NONE', #334, #61, #181 ) ;
#256 = ORIENTED_EDGE ( 'NONE', *, *, #352, .T. ) ;
#257 = DATE_AND_TIME ( #46, #116 ) ;
#258 = FACE_OUTER_BOUND ( 'NONE', #319, .T. ) ;
#259 = ORIENTED_EDGE ( 'NONE', *, *, #248, .F. ) ;
#260 = DATE_AND_TIME ( #170, #151 ) ;
#261 = CARTESIAN_POINT ( 'NONE',  ( -18.00000000000000000, 2.749999999999998224, 3.520859547548636989E-16 ) ) ;
#262 = EDGE_LOOP ( 'NONE', ( #284, #190, #82, #47 ) ) ;
#263 = FACE_OUTER_BOUND ( 'NONE', #360, .T. ) ;
#264 = ORIENTED_EDGE ( 'NONE', *, *, #280, .T. ) ;
#265 = AXIS2_PLACEMENT_3D ( 'NONE', #125, #249, #84 ) ;
#266 = ADVANCED_FACE ( 'NONE', ( #241 ), #141, .T. ) ;
#267 = CARTESIAN_POINT ( 'NONE',  ( -63.39999999999999858, -6.845775607233704406E-15, 0.000000000000000000 ) ) ;
#268 = DIRECTION ( 'NONE',  ( 0.000000000000000000, 1.000000000000000000, 0.000000000000000000 ) ) ;
#269 = CARTESIAN_POINT ( 'NONE',  ( -6.928922679386339184E-17, 3.000000000000000000, 0.000000000000000000 ) ) ;
#270 = PRODUCT_DEFINITION_FORMATION_WITH_SPECIFIED_SOURCE ( 'ANY', '', #376, .NOT_KNOWN. ) ;
#271 = CARTESIAN_POINT ( 'NONE',  ( -9.500000000000000000, -3.000000000000000888, 3.673940397442060854E-16 ) ) ;
#272 = AXIS2_PLACEMENT_3D ( 'NONE', #81, #17, #268 ) ;
#273 = CARTESIAN_POINT ( 'NONE',  ( -64.00000000000000000, -2.400000000000007461, 3.306546357697853733E-16 ) ) ;
#274 = DIRECTION ( 'NONE',  ( 0.7071067811865496822, -0.7071067811865453523, 8.659560562354908206E-17 ) ) ;
#275 = VECTOR ( 'NONE', #157, 999.9999999999998863 ) ;
#276 = DIRECTION ( 'NONE',  ( -1.000000000000000000, -2.578203787678637958E-17, 0.000000000000000000 ) ) ;
#277 =( LENGTH_UNIT ( ) NAMED_UNIT ( * ) SI_UNIT ( .MILLI., .METRE. ) );
#278 = DIRECTION ( 'NONE',  ( 0.000000000000000000, 1.000000000000000000, 0.000000000000000000 ) ) ;
#279 = AXIS2_PLACEMENT_3D ( 'NONE', #25, #86, #210 ) ;
#280 = EDGE_CURVE ( 'NONE', #252, #223, #300, .T. ) ;
#281 = ADVANCED_FACE ( 'NONE', ( #263 ), #63, .T. ) ;
#282 = FACE_OUTER_BOUND ( 'NONE', #193, .T. ) ;
#283 = CARTESIAN_POINT ( 'NONE',  ( -18.00000000000000000, -1.285879139104720633E-15, 0.000000000000000000 ) ) ;
#284 = ORIENTED_EDGE ( 'NONE', *, *, #366, .F. ) ;
#285 = AXIS2_PLACEMENT_3D ( 'NONE', #117, #26, #278 ) ;
#286 = DIRECTION ( 'NONE',  ( 1.000000000000000000, 1.224646799147353207E-16, -0.000000000000000000 ) ) ;
#287 = VERTEX_POINT ( 'NONE', #261 ) ;
#288 = EDGE_CURVE ( 'NONE', #252, #134, #192, .T. ) ;
#289 = PERSON_AND_ORGANIZATION_ROLE ( 'classification_officer' ) ;
#290 = ORIENTED_EDGE ( 'NONE', *, *, #293, .F. ) ;
#291 = COORDINATED_UNIVERSAL_TIME_OFFSET ( 1, 0, .AHEAD. ) ;
#292 = CALENDAR_DATE ( 2022, 1, 6 ) ;
#293 = EDGE_CURVE ( 'NONE', #134, #252, #155, .T. ) ;
#294 = DATE_AND_TIME ( #254, #213 ) ;
#295 = DIRECTION ( 'NONE',  ( -1.000000000000000000, -1.224646799147353207E-16, 0.000000000000000000 ) ) ;
#296 = DIRECTION ( 'NONE',  ( 0.000000000000000000, 0.000000000000000000, 1.000000000000000000 ) ) ;
#297 = CIRCLE ( 'NONE', #197, 2.749999999999999556 ) ;
#298 = CARTESIAN_POINT ( 'NONE',  ( 9.345988730335061095E-17, -3.000000000000000000, 3.673940397442059868E-16 ) ) ;
#299 = CC_DESIGN_PERSON_AND_ORGANIZATION_ASSIGNMENT ( #383, #42, ( #270 ) ) ;
#300 = LINE ( 'NONE', #15, #140 ) ;
#301 = CONICAL_SURFACE ( 'NONE', #100, 2.749999999999999556, 0.2617993877991433016 ) ;
#302 = DIRECTION ( 'NONE',  ( 1.000000000000000000, 2.578203787678637958E-17, -0.000000000000000000 ) ) ;
#303 = AXIS2_PLACEMENT_3D ( 'NONE', #110, #27, #53 ) ;
#304 = ORIENTED_EDGE ( 'NONE', *, *, #370, .F. ) ;
#305 = ORIENTED_EDGE ( 'NONE', *, *, #312, .F. ) ;
#306 = AXIS2_PLACEMENT_3D ( 'NONE', #308, #153, #94 ) ;
#307 = FACE_OUTER_BOUND ( 'NONE', #178, .T. ) ;
#308 = CARTESIAN_POINT ( 'NONE',  ( -63.39999999999999858, -6.845775607233704406E-15, 0.000000000000000000 ) ) ;
#309 = PLANE ( 'NONE',  #279 ) ;
#310 = DIRECTION ( 'NONE',  ( 1.000000000000000000, 1.224646799147353207E-16, -0.000000000000000000 ) ) ;
#311 = AXIS2_PLACEMENT_3D ( 'NONE', #386, #296, #230 ) ;
#312 = EDGE_CURVE ( 'NONE', #231, #83, #120, .T. ) ;
#313 = CARTESIAN_POINT ( 'NONE',  ( -9.500000000000000000, -2.449293598294705921E-16, 0.000000000000000000 ) ) ;
#314 = PRODUCT_DEFINITION_SHAPE ( 'NONE', 'NONE',  #235 ) ;
#315 = DIRECTION ( 'NONE',  ( 1.000000000000000000, 1.224646799147353207E-16, -0.000000000000000000 ) ) ;
#316 = DIRECTION ( 'NONE',  ( 1.000000000000000000, 1.224646799147353207E-16, -0.000000000000000000 ) ) ;
#317 = CARTESIAN_POINT ( 'NONE',  ( -18.00000000000000000, -1.285879139104720633E-15, 0.000000000000000000 ) ) ;
#318 = ORIENTED_EDGE ( 'NONE', *, *, #341, .T. ) ;
#319 = EDGE_LOOP ( 'NONE', ( #54, #43 ) ) ;
#320 = ADVANCED_FACE ( 'NONE', ( #362 ), #387, .T. ) ;
#321 = COORDINATED_UNIVERSAL_TIME_OFFSET ( 1, 0, .AHEAD. ) ;
#322 = ORIENTED_EDGE ( 'NONE', *, *, #280, .F. ) ;
#323 = APPROVAL_ROLE ( '' ) ;
#324 = ADVANCED_FACE ( 'NONE', ( #307 ), #309, .T. ) ;
#325 = CALENDAR_DATE ( 2022, 1, 6 ) ;
#326 = ADVANCED_FACE ( 'NONE', ( #258 ), #357, .T. ) ;
#327 = VECTOR ( 'NONE', #152, 1000.000000000000000 ) ;
#328 = AXIS2_PLACEMENT_3D ( 'NONE', #269, #393, #78 ) ;
#329 = AXIS2_PLACEMENT_3D ( 'NONE', #182, #30, #377 ) ;
#330 = ORIENTED_EDGE ( 'NONE', *, *, #312, .T. ) ;
#331 = ORIENTED_EDGE ( 'NONE', *, *, #288, .T. ) ;
#332 = APPROVAL_PERSON_ORGANIZATION ( #102, #163, #9 ) ;
#333 = ORIENTED_EDGE ( 'NONE', *, *, #400, .F. ) ;
#334 = CARTESIAN_POINT ( 'NONE',  ( -63.39999999999999858, -6.845775607233704406E-15, 0.000000000000000000 ) ) ;
#335 = CIRCLE ( 'NONE', #154, 2.400000000000000799 ) ;
#336 = ORIENTED_EDGE ( 'NONE', *, *, #195, .T. ) ;
#337 = CARTESIAN_POINT ( 'NONE',  ( -9.500000000000000000, -2.749999999999999556, 3.367778697655220026E-16 ) ) ;
#338 = FACE_OUTER_BOUND ( 'NONE', #262, .T. ) ;
#339 = DIRECTION ( 'NONE',  ( 1.000000000000000000, 1.224646799147353207E-16, -0.000000000000000000 ) ) ;
#340 = CARTESIAN_POINT ( 'NONE',  ( -7.734611363035913565E-17, 3.000000000000000000, 0.000000000000000000 ) ) ;
#341 = EDGE_CURVE ( 'NONE', #36, #16, #45, .T. ) ;
#342 = APPROVAL ( #168, 'UNSPECIFIED' ) ;
#343 = CARTESIAN_POINT ( 'NONE',  ( -64.00000000000000000, -6.919254415182545337E-15, 0.000000000000000000 ) ) ;
#344 = ORGANIZATION ( 'UNSPECIFIED', 'UNSPECIFIED', '' ) ;
#345 = FACE_OUTER_BOUND ( 'NONE', #229, .T. ) ;
#346 = VECTOR ( 'NONE', #286, 1000.000000000000000 ) ;
#347 = CIRCLE ( 'NONE', #355, 3.000000000000000444 ) ;
#348 = APPLICATION_CONTEXT ( 'configuration controlled 3d designs of mechanical parts and assemblies' ) ;
#349 = CIRCLE ( 'NONE', #329, 2.400000000000000799 ) ;
#350 = PERSON_AND_ORGANIZATION_ROLE ( 'creator' ) ;
#351 = VECTOR ( 'NONE', #60, 1000.000000000000000 ) ;
#352 = EDGE_CURVE ( 'NONE', #381, #7, #347, .T. ) ;
#353 = DESIGN_CONTEXT ( 'detailed design', #23, 'design' ) ;
#354 = EDGE_LOOP ( 'NONE', ( #385, #159, #126, #250 ) ) ;
#355 = AXIS2_PLACEMENT_3D ( 'NONE', #93, #219, #378 ) ;
#356 = DATE_AND_TIME ( #292, #129 ) ;
#357 = PLANE ( 'NONE',  #166 ) ;
#358 = ORIENTED_EDGE ( 'NONE', *, *, #165, .F. ) ;
#359 = APPLICATION_PROTOCOL_DEFINITION ( 'international standard', 'config_control_design', 1994, #23 ) ;
#360 = EDGE_LOOP ( 'NONE', ( #51, #22, #404, #305 ) ) ;
#361 = EDGE_LOOP ( 'NONE', ( #336, #318 ) ) ;
#362 = FACE_OUTER_BOUND ( 'NONE', #204, .T. ) ;
#363 = ORIENTED_EDGE ( 'NONE', *, *, #366, .T. ) ;
#364 = ORIENTED_EDGE ( 'NONE', *, *, #221, .T. ) ;
#365 = AXIS2_PLACEMENT_3D ( 'NONE', #75, #397, #79 ) ;
#366 = EDGE_CURVE ( 'NONE', #287, #72, #297, .T. ) ;
#367 = CARTESIAN_POINT ( 'NONE',  ( 0.000000000000000000, 0.000000000000000000, 0.000000000000000000 ) ) ;
#368 = CARTESIAN_POINT ( 'NONE',  ( -9.500000000000000000, -2.449293598294705921E-16, 0.000000000000000000 ) ) ;
#369 = DIRECTION ( 'NONE',  ( 0.000000000000000000, 1.000000000000000000, 0.000000000000000000 ) ) ;
#370 = EDGE_CURVE ( 'NONE', #287, #135, #185, .T. ) ;
#371 = APPROVAL ( #196, 'UNSPECIFIED' ) ;
#372 = DIRECTION ( 'NONE',  ( 1.000000000000000000, 2.578203787678637958E-17, -0.000000000000000000 ) ) ;
#373 = AXIS2_PLACEMENT_3D ( 'NONE', #368, #85, #224 ) ;
#374 =( NAMED_UNIT ( * ) SI_UNIT ( $, .STERADIAN. ) SOLID_ANGLE_UNIT ( ) );
#375 = DIRECTION ( 'NONE',  ( 0.000000000000000000, -1.000000000000000000, 0.000000000000000000 ) ) ;
#376 = PRODUCT ( '358882358895', '358882358895', '', ( #172 ) ) ;
#377 = DIRECTION ( 'NONE',  ( 0.000000000000000000, 1.000000000000000000, 0.000000000000000000 ) ) ;
#378 = DIRECTION ( 'NONE',  ( 0.000000000000000000, 1.000000000000000000, 0.000000000000000000 ) ) ;
#379 = ORIENTED_EDGE ( 'NONE', *, *, #91, .T. ) ;
#380 = CARTESIAN_POINT ( 'NONE',  ( -63.39999999999999858, -3.000000000000007994, 3.673940397442060854E-16 ) ) ;
#381 = VERTEX_POINT ( 'NONE', #1 ) ;
#382 = APPROVAL_PERSON_ORGANIZATION ( #128, #371, #323 ) ;
#383 = PERSON_AND_ORGANIZATION ( #227, #344 ) ;
#384 = EDGE_CURVE ( 'NONE', #135, #223, #408, .T. ) ;
#385 = ORIENTED_EDGE ( 'NONE', *, *, #118, .F. ) ;
#386 = CARTESIAN_POINT ( 'NONE',  ( 0.000000000000000000, 0.000000000000000000, 0.000000000000000000 ) ) ;
#387 = CONICAL_SURFACE ( 'NONE', #255, 3.000000000000000444, 0.7853981633974453924 ) ;
#388 = ORIENTED_EDGE ( 'NONE', *, *, #384, .F. ) ;
#389 = DATE_AND_TIME ( #325, #59 ) ;
#390 = ORIENTED_EDGE ( 'NONE', *, *, #80, .F. ) ;
#391 = CIRCLE ( 'NONE', #113, 2.749999999999999556 ) ;
#392 = APPROVAL_DATE_TIME ( #294, #371 ) ;
#393 = DIRECTION ( 'NONE',  ( 1.000000000000000000, 2.578203787678637958E-17, -0.000000000000000000 ) ) ;
#394 = APPLICATION_PROTOCOL_DEFINITION ( 'international standard', 'config_control_design', 1994, #348 ) ;
#395 = AXIS2_PLACEMENT_3D ( 'NONE', #31, #372, #156 ) ;
#396 = ORIENTED_EDGE ( 'NONE', *, *, #132, .T. ) ;
#397 = DIRECTION ( 'NONE',  ( 1.000000000000000000, 1.224646799147353207E-16, -0.000000000000000000 ) ) ;
#398 = CARTESIAN_POINT ( 'NONE',  ( -9.500000000000000000, 2.749999999999998224, 0.000000000000000000 ) ) ;
#399 = CC_DESIGN_APPROVAL ( #163, ( #235 ) ) ;
#400 = EDGE_CURVE ( 'NONE', #72, #287, #391, .T. ) ;
#401 = CARTESIAN_POINT ( 'NONE',  ( -64.00000000000000000, 2.399999999999993694, 0.000000000000000000 ) ) ;
#402 = EDGE_CURVE ( 'NONE', #12, #134, #412, .T. ) ;
#403 = ADVANCED_BREP_SHAPE_REPRESENTATION ( '358882358895', ( #29, #41, #311 ), #21 ) ;
#404 = ORIENTED_EDGE ( 'NONE', *, *, #406, .T. ) ;
#405 = LINE ( 'NONE', #90, #119 ) ;
#406 = EDGE_CURVE ( 'NONE', #287, #83, #96, .T. ) ;
#407 = FACE_OUTER_BOUND ( 'NONE', #130, .T. ) ;
#408 = CIRCLE ( 'NONE', #74, 2.999999999999995115 ) ;
#409 = UNCERTAINTY_MEASURE_WITH_UNIT (LENGTH_MEASURE( 1.000000000000000082E-05 ), #277, 'distance_accuracy_value', 'NONE');
#410 = LINE ( 'NONE', #115, #180 ) ;
#411 = CONICAL_SURFACE ( 'NONE', #306, 3.000000000000000444, 0.7853981633974453924 ) ;
#412 = LINE ( 'NONE', #67, #14 ) ;
#413 = DIRECTION ( 'NONE',  ( 0.000000000000000000, -1.000000000000000000, 0.000000000000000000 ) ) ;
ENDSEC;
END-ISO-10303-21;
