ISO-10303-21;
HEADER;
FILE_DESCRIPTION (( 'STEP AP203' ),
    '1' );
FILE_NAME ('358882358892.step',
    '2022-06-01T11:23:46',
    ( '' ),
    ( '' ),
    'SwSTEP 2.0',
    'SolidWorks 2019',
    '' );
FILE_SCHEMA (( 'CONFIG_CONTROL_DESIGN' ));
ENDSEC;

DATA;
#1 = DIRECTION ( 'NONE',  ( -1.000000000000000000, -1.289101893839319256E-16, 0.000000000000000000 ) ) ;
#2 = CARTESIAN_POINT ( 'NONE',  ( -7.500000000000000000, 2.500000000000000000, 0.000000000000000000 ) ) ;
#3 = DIRECTION ( 'NONE',  ( 0.000000000000000000, 1.000000000000000000, 0.000000000000000000 ) ) ;
#4 = CALENDAR_DATE ( 2022, 1, 6 ) ;
#5 = CARTESIAN_POINT ( 'NONE',  ( -54.39999999999999858, 2.999999999999998224, 0.000000000000000000 ) ) ;
#6 = DATE_AND_TIME ( #323, #355 ) ;
#7 = EDGE_CURVE ( 'NONE', #274, #334, #312, .T. ) ;
#8 = CARTESIAN_POINT ( 'NONE',  ( -7.500000000000000000, -6.123233995736759873E-17, 0.000000000000000000 ) ) ;
#9 = SHAPE_DEFINITION_REPRESENTATION ( #141, #74 ) ;
#10 = DIRECTION ( 'NONE',  ( 0.000000000000000000, 1.000000000000000000, 0.000000000000000000 ) ) ;
#11 = PERSON_AND_ORGANIZATION_ROLE ( 'creator' ) ;
#12 = ORIENTED_EDGE ( 'NONE', *, *, #226, .T. ) ;
#13 = ADVANCED_FACE ( 'NONE', ( #174 ), #342, .T. ) ;
#14 = AXIS2_PLACEMENT_3D ( 'NONE', #193, #298, #361 ) ;
#15 = LINE ( 'NONE', #99, #147 ) ;
#16 = ORIENTED_EDGE ( 'NONE', *, *, #413, .F. ) ;
#17 = CARTESIAN_POINT ( 'NONE',  ( -15.00000000000000000, -1.028058760336856831E-15, 0.000000000000000000 ) ) ;
#18 = CARTESIAN_POINT ( 'NONE',  ( 0.000000000000000000, 0.000000000000000000, 0.000000000000000000 ) ) ;
#19 = ORIENTED_EDGE ( 'NONE', *, *, #139, .T. ) ;
#20 = DIRECTION ( 'NONE',  ( 1.289101893839319256E-16, -1.000000000000000000, 0.000000000000000000 ) ) ;
#21 = ORIENTED_EDGE ( 'NONE', *, *, #226, .F. ) ;
#22 = DIRECTION ( 'NONE',  ( 1.000000000000000000, 1.289101893839319256E-16, -0.000000000000000000 ) ) ;
#23 = UNCERTAINTY_MEASURE_WITH_UNIT (LENGTH_MEASURE( 1.000000000000000082E-05 ), #200, 'distance_accuracy_value', 'NONE');
#24 = ADVANCED_FACE ( 'NONE', ( #50 ), #85, .T. ) ;
#25 = CYLINDRICAL_SURFACE ( 'NONE', #58, 2.500000000000000000 ) ;
#26 = DIRECTION ( 'NONE',  ( 0.000000000000000000, -1.000000000000000000, 0.000000000000000000 ) ) ;
#27 = EDGE_CURVE ( 'NONE', #233, #357, #240, .T. ) ;
#28 = CARTESIAN_POINT ( 'NONE',  ( -1.020538999289465885E-17, -8.331998792565908385E-35, 0.000000000000000000 ) ) ;
#29 = DIRECTION ( 'NONE',  ( 1.000000000000000000, 1.289101893839319256E-16, -0.000000000000000000 ) ) ;
#30 = AXIS2_PLACEMENT_3D ( 'NONE', #310, #243, #26 ) ;
#31 = MANIFOLD_SOLID_BREP ( 'Révolution2', #345 ) ;
#32 = FACE_OUTER_BOUND ( 'NONE', #134, .T. ) ;
#33 = PERSON_AND_ORGANIZATION_ROLE ( 'design_supplier' ) ;
#34 = CARTESIAN_POINT ( 'NONE',  ( -15.00000000000000000, -1.028058760336856831E-15, 0.000000000000000000 ) ) ;
#35 = APPROVAL_STATUS ( 'not_yet_approved' ) ;
#36 = ADVANCED_FACE ( 'NONE', ( #239 ), #244, .T. ) ;
#37 = LINE ( 'NONE', #358, #324 ) ;
#38 = APPROVAL_DATE_TIME ( #6, #236 ) ;
#39 = CC_DESIGN_APPROVAL ( #236, ( #198 ) ) ;
#40 = DIRECTION ( 'NONE',  ( 1.000000000000000000, 1.289101893839319256E-16, -0.000000000000000000 ) ) ;
#41 = ORIENTED_EDGE ( 'NONE', *, *, #212, .F. ) ;
#42 = AXIS2_PLACEMENT_3D ( 'NONE', #260, #272, #10 ) ;
#43 = FACE_OUTER_BOUND ( 'NONE', #173, .T. ) ;
#44 = PLANE ( 'NONE',  #367 ) ;
#45 = ORIENTED_EDGE ( 'NONE', *, *, #106, .F. ) ;
#46 = ORIENTED_EDGE ( 'NONE', *, *, #93, .T. ) ;
#47 = ORIENTED_EDGE ( 'NONE', *, *, #350, .F. ) ;
#48 = CARTESIAN_POINT ( 'NONE',  ( -7.500000000000000000, -6.123233995736759873E-17, 0.000000000000000000 ) ) ;
#49 = VERTEX_POINT ( 'NONE', #373 ) ;
#50 = FACE_OUTER_BOUND ( 'NONE', #307, .T. ) ;
#51 = CC_DESIGN_PERSON_AND_ORGANIZATION_ASSIGNMENT ( #114, #209, ( #204 ) ) ;
#52 = CYLINDRICAL_SURFACE ( 'NONE', #306, 2.999999999999999556 ) ;
#53 = CC_DESIGN_PERSON_AND_ORGANIZATION_ASSIGNMENT ( #255, #297, ( #198 ) ) ;
#54 = AXIS2_PLACEMENT_3D ( 'NONE', #314, #87, #280 ) ;
#55 = CYLINDRICAL_SURFACE ( 'NONE', #137, 2.500000000000000000 ) ;
#56 = PERSON ( 'UNSPECIFIED', 'UNSPECIFIED', 'UNSPECIFIED', ('UNSPECIFIED'), ('UNSPECIFIED'), ('UNSPECIFIED') ) ;
#57 = DIRECTION ( 'NONE',  ( -1.000000000000000000, -1.289101893839319256E-16, 0.000000000000000000 ) ) ;
#58 = AXIS2_PLACEMENT_3D ( 'NONE', #179, #276, #411 ) ;
#59 = CIRCLE ( 'NONE', #352, 2.999999999999994671 ) ;
#60 = PERSON_AND_ORGANIZATION_ROLE ( 'creator' ) ;
#61 = DIRECTION ( 'NONE',  ( -8.164311994315680241E-18, 1.000000000000000000, 0.000000000000000000 ) ) ;
#62 = EDGE_CURVE ( 'NONE', #406, #233, #377, .T. ) ;
#63 = COORDINATED_UNIVERSAL_TIME_OFFSET ( 1, 0, .AHEAD. ) ;
#64 = COORDINATED_UNIVERSAL_TIME_OFFSET ( 1, 0, .AHEAD. ) ;
#65 = ORIENTED_EDGE ( 'NONE', *, *, #214, .F. ) ;
#66 = AXIS2_PLACEMENT_3D ( 'NONE', #386, #316, #317 ) ;
#67 =( NAMED_UNIT ( * ) SI_UNIT ( $, .STERADIAN. ) SOLID_ANGLE_UNIT ( ) );
#68 = ORIENTED_EDGE ( 'NONE', *, *, #398, .F. ) ;
#69 = ORIENTED_EDGE ( 'NONE', *, *, #7, .T. ) ;
#70 = DIRECTION ( 'NONE',  ( 1.000000000000000000, 1.289101893839319256E-16, -0.000000000000000000 ) ) ;
#71 = LOCAL_TIME ( 13, 23, 46.00000000000000000, #64 ) ;
#72 = CARTESIAN_POINT ( 'NONE',  ( -2.041077998578920060E-17, 2.500000000000000000, 0.000000000000000000 ) ) ;
#73 = ORIENTED_EDGE ( 'NONE', *, *, #413, .T. ) ;
#74 = ADVANCED_BREP_SHAPE_REPRESENTATION ( '358882358892', ( #167, #31, #54 ), #123 ) ;
#75 = CLOSED_SHELL ( 'NONE', ( #24, #156, #242, #201, #338, #36, #365, #81, #207, #335 ) ) ;
#76 = DIRECTION ( 'NONE',  ( -1.000000000000000000, -8.164311994315680241E-18, 0.000000000000000000 ) ) ;
#77 = CC_DESIGN_PERSON_AND_ORGANIZATION_ASSIGNMENT ( #249, #60, ( #220 ) ) ;
#78 = CARTESIAN_POINT ( 'NONE',  ( -2.551347498223653234E-17, 2.500000000000000000, 0.000000000000000000 ) ) ;
#79 = ORIENTED_EDGE ( 'NONE', *, *, #378, .T. ) ;
#80 = CONICAL_SURFACE ( 'NONE', #308, 3.000000000000004441, 0.7853981633974453924 ) ;
#81 = ADVANCED_FACE ( 'NONE', ( #376 ), #52, .T. ) ;
#82 = AXIS2_PLACEMENT_3D ( 'NONE', #368, #40, #133 ) ;
#83 = DIRECTION ( 'NONE',  ( 0.000000000000000000, 1.000000000000000000, 0.000000000000000000 ) ) ;
#84 = MECHANICAL_CONTEXT ( 'NONE', #245, 'mechanical' ) ;
#85 = CYLINDRICAL_SURFACE ( 'NONE', #331, 2.299999999999998490 ) ;
#86 = LINE ( 'NONE', #237, #178 ) ;
#87 = DIRECTION ( 'NONE',  ( 0.000000000000000000, 0.000000000000000000, 1.000000000000000000 ) ) ;
#88 = AXIS2_PLACEMENT_3D ( 'NONE', #142, #208, #349 ) ;
#89 = DIRECTION ( 'NONE',  ( 0.000000000000000000, 1.000000000000000000, 0.000000000000000000 ) ) ;
#90 = CARTESIAN_POINT ( 'NONE',  ( -54.39999999999999858, 2.999999999999997780, 0.000000000000000000 ) ) ;
#91 = CC_DESIGN_SECURITY_CLASSIFICATION ( #198, ( #384 ) ) ;
#92 = DATE_AND_TIME ( #225, #401 ) ;
#93 = EDGE_CURVE ( 'NONE', #334, #263, #166, .T. ) ;
#94 = CIRCLE ( 'NONE', #210, 2.299999999999998934 ) ;
#95 = CIRCLE ( 'NONE', #253, 2.400000000000004352 ) ;
#96 = COORDINATED_UNIVERSAL_TIME_OFFSET ( 1, 0, .AHEAD. ) ;
#97 = CYLINDRICAL_SURFACE ( 'NONE', #374, 2.999999999999999556 ) ;
#98 = PERSON_AND_ORGANIZATION ( #56, #144 ) ;
#99 = CARTESIAN_POINT ( 'NONE',  ( -7.500000000000000000, 2.299999999999998490, 0.000000000000000000 ) ) ;
#100 = CIRCLE ( 'NONE', #266, 3.000000000000004441 ) ;
#101 = ORIENTED_EDGE ( 'NONE', *, *, #293, .T. ) ;
#102 = EDGE_LOOP ( 'NONE', ( #195, #128, #21, #228 ) ) ;
#103 = APPLICATION_CONTEXT ( 'configuration controlled 3d designs of mechanical parts and assemblies' ) ;
#104 = ORIENTED_EDGE ( 'NONE', *, *, #353, .T. ) ;
#105 = ORIENTED_EDGE ( 'NONE', *, *, #353, .F. ) ;
#106 = EDGE_CURVE ( 'NONE', #369, #274, #94, .T. ) ;
#107 = VERTEX_POINT ( 'NONE', #2 ) ;
#108 = DIRECTION ( 'NONE',  ( 1.000000000000000000, 8.164311994315680241E-18, -0.000000000000000000 ) ) ;
#109 = APPROVAL_PERSON_ORGANIZATION ( #390, #273, #218 ) ;
#110 = ORIENTED_EDGE ( 'NONE', *, *, #370, .F. ) ;
#111 = ORIENTED_EDGE ( 'NONE', *, *, #398, .T. ) ;
#112 = DIRECTION ( 'NONE',  ( 1.000000000000000000, 1.289101893839319256E-16, -0.000000000000000000 ) ) ;
#113 = CARTESIAN_POINT ( 'NONE',  ( -7.500000000000000000, -6.123233995736759873E-17, 0.000000000000000000 ) ) ;
#114 = PERSON_AND_ORGANIZATION ( #56, #144 ) ;
#115 = CARTESIAN_POINT ( 'NONE',  ( -7.500000000000000000, -6.123233995736759873E-17, 0.000000000000000000 ) ) ;
#116 = AXIS2_PLACEMENT_3D ( 'NONE', #78, #138, #313 ) ;
#117 = LINE ( 'NONE', #5, #340 ) ;
#118 = ADVANCED_FACE ( 'NONE', ( #205 ), #25, .T. ) ;
#119 = CC_DESIGN_APPROVAL ( #149, ( #220 ) ) ;
#120 = CARTESIAN_POINT ( 'NONE',  ( -7.500000000000000000, 2.299999999999998046, 0.000000000000000000 ) ) ;
#121 = CC_DESIGN_PERSON_AND_ORGANIZATION_ASSIGNMENT ( #98, #33, ( #384 ) ) ;
#122 = DIRECTION ( 'NONE',  ( 0.000000000000000000, -1.000000000000000000, 0.000000000000000000 ) ) ;
#123 =( GEOMETRIC_REPRESENTATION_CONTEXT ( 3 ) GLOBAL_UNCERTAINTY_ASSIGNED_CONTEXT ( ( #23 ) ) GLOBAL_UNIT_ASSIGNED_CONTEXT ( ( #200, #402, #67 ) ) REPRESENTATION_CONTEXT ( 'NONE', 'WORKASPACE' ) );
#124 = FACE_OUTER_BOUND ( 'NONE', #259, .T. ) ;
#125 = ORIENTED_EDGE ( 'NONE', *, *, #62, .F. ) ;
#126 = DIRECTION ( 'NONE',  ( 0.000000000000000000, 1.000000000000000000, 0.000000000000000000 ) ) ;
#127 = LOCAL_TIME ( 13, 23, 46.00000000000000000, #63 ) ;
#128 = ORIENTED_EDGE ( 'NONE', *, *, #62, .T. ) ;
#129 = VERTEX_POINT ( 'NONE', #145 ) ;
#130 = VECTOR ( 'NONE', #175, 1000.000000000000000 ) ;
#131 = VECTOR ( 'NONE', #265, 999.9999999999998863 ) ;
#132 = ORIENTED_EDGE ( 'NONE', *, *, #106, .T. ) ;
#133 = DIRECTION ( 'NONE',  ( 0.000000000000000000, 1.000000000000000000, 0.000000000000000000 ) ) ;
#134 = EDGE_LOOP ( 'NONE', ( #256, #111, #65, #140 ) ) ;
#135 = DIRECTION ( 'NONE',  ( 1.000000000000000000, 8.164311994315680241E-18, -0.000000000000000000 ) ) ;
#136 = ORIENTED_EDGE ( 'NONE', *, *, #27, .T. ) ;
#137 = AXIS2_PLACEMENT_3D ( 'NONE', #18, #371, #184 ) ;
#138 = DIRECTION ( 'NONE',  ( 1.000000000000000000, 8.164311994315680241E-18, -0.000000000000000000 ) ) ;
#139 = EDGE_CURVE ( 'NONE', #274, #49, #86, .T. ) ;
#140 = ORIENTED_EDGE ( 'NONE', *, *, #378, .F. ) ;
#141 = PRODUCT_DEFINITION_SHAPE ( 'NONE', 'NONE',  #220 ) ;
#142 = CARTESIAN_POINT ( 'NONE',  ( -7.500000000000000000, -6.123233995736756175E-17, 0.000000000000000000 ) ) ;
#143 = VERTEX_POINT ( 'NONE', #281 ) ;
#144 = ORGANIZATION ( 'UNSPECIFIED', 'UNSPECIFIED', '' ) ;
#145 = CARTESIAN_POINT ( 'NONE',  ( -55.00000000000000000, -2.400000000000010569, 3.306546357697859650E-16 ) ) ;
#146 = CONICAL_SURFACE ( 'NONE', #30, 2.299999999999998934, 0.2617993877991425800 ) ;
#147 = VECTOR ( 'NONE', #325, 1000.000000000000000 ) ;
#148 = DIRECTION ( 'NONE',  ( 1.000000000000000000, 1.289101893839319256E-16, -0.000000000000000000 ) ) ;
#149 = APPROVAL ( #251, 'UNSPECIFIED' ) ;
#150 = CARTESIAN_POINT ( 'NONE',  ( 2.041077998578920060E-17, -2.500000000000000000, 3.061616997868383141E-16 ) ) ;
#151 = CARTESIAN_POINT ( 'NONE',  ( -17.61243556529827003, -1.364828323812776209E-15, 0.000000000000000000 ) ) ;
#152 = CIRCLE ( 'NONE', #394, 2.400000000000004352 ) ;
#153 = CIRCLE ( 'NONE', #395, 2.299999999999998934 ) ;
#154 = EDGE_CURVE ( 'NONE', #231, #129, #152, .T. ) ;
#155 = DIRECTION ( 'NONE',  ( 1.000000000000000000, 8.164311994315680241E-18, -0.000000000000000000 ) ) ;
#156 = ADVANCED_FACE ( 'NONE', ( #315 ), #146, .T. ) ;
#157 = SECURITY_CLASSIFICATION_LEVEL ( 'unclassified' ) ;
#158 = CC_DESIGN_DATE_AND_TIME_ASSIGNMENT ( #318, #216, ( #198 ) ) ;
#159 = LOCAL_TIME ( 13, 23, 46.00000000000000000, #190 ) ;
#160 = CARTESIAN_POINT ( 'NONE',  ( -55.00000000000000000, 2.399999999999998579, 0.000000000000000000 ) ) ;
#161 = APPROVAL_ROLE ( '' ) ;
#162 = DIRECTION ( 'NONE',  ( 0.000000000000000000, 1.000000000000000000, 0.000000000000000000 ) ) ;
#163 = DATE_AND_TIME ( #188, #127 ) ;
#164 = ORIENTED_EDGE ( 'NONE', *, *, #293, .F. ) ;
#165 = CARTESIAN_POINT ( 'NONE',  ( -15.00000000000000000, 2.299999999999998046, 3.245314017740482018E-16 ) ) ;
#166 = CIRCLE ( 'NONE', #88, 2.299999999999998046 ) ;
#167 = MANIFOLD_SOLID_BREP ( 'Révolution1', #75 ) ;
#168 = CIRCLE ( 'NONE', #14, 3.000000000000004441 ) ;
#169 = EDGE_LOOP ( 'NONE', ( #68, #311, #79, #301 ) ) ;
#170 = CARTESIAN_POINT ( 'NONE',  ( -54.39999999999999858, -3.000000000000011102, 3.673940397442065291E-16 ) ) ;
#171 = ORIENTED_EDGE ( 'NONE', *, *, #7, .F. ) ;
#172 = AXIS2_PLACEMENT_3D ( 'NONE', #180, #1, #20 ) ;
#173 = EDGE_LOOP ( 'NONE', ( #171, #372, #73, #330 ) ) ;
#174 = FACE_OUTER_BOUND ( 'NONE', #268, .T. ) ;
#175 = DIRECTION ( 'NONE',  ( 1.000000000000000000, 8.164311994315680241E-18, -0.000000000000000000 ) ) ;
#176 = CARTESIAN_POINT ( 'NONE',  ( -7.500000000000000000, -2.299999999999998490, 2.816687638038910577E-16 ) ) ;
#177 = EDGE_CURVE ( 'NONE', #107, #406, #264, .T. ) ;
#178 = VECTOR ( 'NONE', #344, 1000.000000000000000 ) ;
#179 = CARTESIAN_POINT ( 'NONE',  ( 0.000000000000000000, 0.000000000000000000, 0.000000000000000000 ) ) ;
#180 = CARTESIAN_POINT ( 'NONE',  ( -55.00000000000000000, -6.184466335694133659E-15, 0.000000000000000000 ) ) ;
#181 = APPLICATION_PROTOCOL_DEFINITION ( 'international standard', 'config_control_design', 1994, #245 ) ;
#182 = APPROVAL_PERSON_ORGANIZATION ( #385, #149, #294 ) ;
#183 = ADVANCED_FACE ( 'NONE', ( #211 ), #55, .T. ) ;
#184 = DIRECTION ( 'NONE',  ( -8.164311994315680241E-18, 1.000000000000000000, 0.000000000000000000 ) ) ;
#185 = AXIS2_PLACEMENT_3D ( 'NONE', #8, #76, #400 ) ;
#186 = CARTESIAN_POINT ( 'NONE',  ( -17.61243556529827003, -1.364828323812776209E-15, 0.000000000000000000 ) ) ;
#187 = DATE_AND_TIME ( #4, #71 ) ;
#188 = CALENDAR_DATE ( 2022, 1, 6 ) ;
#189 = CC_DESIGN_APPROVAL ( #273, ( #384 ) ) ;
#190 = COORDINATED_UNIVERSAL_TIME_OFFSET ( 1, 0, .AHEAD. ) ;
#191 = CC_DESIGN_PERSON_AND_ORGANIZATION_ASSIGNMENT ( #258, #11, ( #384 ) ) ;
#192 = CARTESIAN_POINT ( 'NONE',  ( -7.500000000000000000, -2.500000000000000000, 3.061616997868383141E-16 ) ) ;
#193 = CARTESIAN_POINT ( 'NONE',  ( -54.39999999999999858, -6.107120222063774992E-15, 0.000000000000000000 ) ) ;
#194 = EDGE_LOOP ( 'NONE', ( #375, #261, #101, #47 ) ) ;
#195 = ORIENTED_EDGE ( 'NONE', *, *, #177, .T. ) ;
#196 = DIRECTION ( 'NONE',  ( 1.000000000000000000, 1.289101893839319256E-16, -0.000000000000000000 ) ) ;
#197 = EDGE_CURVE ( 'NONE', #129, #360, #37, .T. ) ;
#198 = SECURITY_CLASSIFICATION ( '', '', #157 ) ;
#199 = VERTEX_POINT ( 'NONE', #90 ) ;
#200 =( LENGTH_UNIT ( ) NAMED_UNIT ( * ) SI_UNIT ( .MILLI., .METRE. ) );
#201 = ADVANCED_FACE ( 'NONE', ( #322 ), #80, .T. ) ;
#202 = CYLINDRICAL_SURFACE ( 'NONE', #82, 2.299999999999998490 ) ;
#203 = DIRECTION ( 'NONE',  ( 1.000000000000000000, 1.289101893839319256E-16, -0.000000000000000000 ) ) ;
#204 = PRODUCT ( '358882358892', '358882358892', '', ( #84 ) ) ;
#205 = FACE_OUTER_BOUND ( 'NONE', #409, .T. ) ;
#206 = DIRECTION ( 'NONE',  ( 0.000000000000000000, 1.000000000000000000, 0.000000000000000000 ) ) ;
#207 = ADVANCED_FACE ( 'NONE', ( #124 ), #351, .T. ) ;
#208 = DIRECTION ( 'NONE',  ( 1.000000000000000000, 1.289101893839319256E-16, -0.000000000000000000 ) ) ;
#209 = PERSON_AND_ORGANIZATION_ROLE ( 'design_owner' ) ;
#210 = AXIS2_PLACEMENT_3D ( 'NONE', #285, #339, #277 ) ;
#211 = FACE_OUTER_BOUND ( 'NONE', #102, .T. ) ;
#212 = EDGE_CURVE ( 'NONE', #406, #107, #282, .T. ) ;
#213 = PLANE ( 'NONE',  #185 ) ;
#214 = EDGE_CURVE ( 'NONE', #143, #49, #387, .T. ) ;
#215 = CARTESIAN_POINT ( 'NONE',  ( -54.39999999999999858, -6.107120222063774992E-15, 0.000000000000000000 ) ) ;
#216 = DATE_TIME_ROLE ( 'classification_date' ) ;
#217 = CONICAL_SURFACE ( 'NONE', #42, 3.000000000000004441, 0.7853981633974453924 ) ;
#218 = APPROVAL_ROLE ( '' ) ;
#219 = DIRECTION ( 'NONE',  ( 1.000000000000000000, 1.289101893839319256E-16, -0.000000000000000000 ) ) ;
#220 = PRODUCT_DEFINITION ( 'UNKNOWN', '', #384, #291 ) ;
#221 = CALENDAR_DATE ( 2022, 1, 6 ) ;
#222 = DIRECTION ( 'NONE',  ( 0.000000000000000000, 1.000000000000000000, 0.000000000000000000 ) ) ;
#223 = CARTESIAN_POINT ( 'NONE',  ( -3.061616997868386099E-17, 2.500000000000000000, 0.000000000000000000 ) ) ;
#224 = ORIENTED_EDGE ( 'NONE', *, *, #27, .F. ) ;
#225 = CALENDAR_DATE ( 2022, 1, 6 ) ;
#226 = EDGE_CURVE ( 'NONE', #357, #233, #347, .T. ) ;
#227 = FACE_OUTER_BOUND ( 'NONE', #363, .T. ) ;
#228 = ORIENTED_EDGE ( 'NONE', *, *, #382, .F. ) ;
#229 = CARTESIAN_POINT ( 'NONE',  ( -7.500000000000000000, -2.299999999999998046, 2.816687638038910577E-16 ) ) ;
#230 = APPROVAL_PERSON_ORGANIZATION ( #356, #236, #161 ) ;
#231 = VERTEX_POINT ( 'NONE', #160 ) ;
#232 = DIRECTION ( 'NONE',  ( 1.000000000000000000, 1.289101893839319256E-16, -0.000000000000000000 ) ) ;
#233 = VERTEX_POINT ( 'NONE', #254 ) ;
#234 = DIRECTION ( 'NONE',  ( 1.000000000000000000, 1.289101893839319256E-16, -0.000000000000000000 ) ) ;
#235 = EDGE_LOOP ( 'NONE', ( #399, #110 ) ) ;
#236 = APPROVAL ( #35, 'UNSPECIFIED' ) ;
#237 = CARTESIAN_POINT ( 'NONE',  ( -15.00000000000000000, -2.299999999999999822, 0.000000000000000000 ) ) ;
#238 = EDGE_LOOP ( 'NONE', ( #45, #104, #336, #362 ) ) ;
#239 = FACE_OUTER_BOUND ( 'NONE', #235, .T. ) ;
#240 = CIRCLE ( 'NONE', #380, 2.500000000000000000 ) ;
#241 = ORIENTED_EDGE ( 'NONE', *, *, #279, .F. ) ;
#242 = ADVANCED_FACE ( 'NONE', ( #32 ), #97, .T. ) ;
#243 = DIRECTION ( 'NONE',  ( -1.000000000000000000, -1.289101893839319256E-16, 0.000000000000000000 ) ) ;
#244 = PLANE ( 'NONE',  #172 ) ;
#245 = APPLICATION_CONTEXT ( 'configuration controlled 3d designs of mechanical parts and assemblies' ) ;
#246 = CARTESIAN_POINT ( 'NONE',  ( -1.020538999289465885E-17, -8.331998792565908385E-35, 0.000000000000000000 ) ) ;
#247 = DIRECTION ( 'NONE',  ( 1.000000000000000000, 1.289101893839319256E-16, -0.000000000000000000 ) ) ;
#248 = DIRECTION ( 'NONE',  ( 1.000000000000000000, 1.289101893839319256E-16, -0.000000000000000000 ) ) ;
#249 = PERSON_AND_ORGANIZATION ( #56, #144 ) ;
#250 = DIRECTION ( 'NONE',  ( 0.000000000000000000, 1.000000000000000000, 0.000000000000000000 ) ) ;
#251 = APPROVAL_STATUS ( 'not_yet_approved' ) ;
#252 = EDGE_CURVE ( 'NONE', #49, #143, #59, .T. ) ;
#253 = AXIS2_PLACEMENT_3D ( 'NONE', #396, #234, #305 ) ;
#254 = CARTESIAN_POINT ( 'NONE',  ( 1.020538999289454175E-17, -2.500000000000000000, 3.061616997868383141E-16 ) ) ;
#255 = PERSON_AND_ORGANIZATION ( #56, #144 ) ;
#256 = ORIENTED_EDGE ( 'NONE', *, *, #279, .T. ) ;
#257 = DIRECTION ( 'NONE',  ( 0.7071067811865496822, -0.7071067811865453523, 8.659560562354908206E-17 ) ) ;
#258 = PERSON_AND_ORGANIZATION ( #56, #144 ) ;
#259 = EDGE_LOOP ( 'NONE', ( #105, #341, #19, #278 ) ) ;
#260 = CARTESIAN_POINT ( 'NONE',  ( -54.39999999999999858, -6.107120222063774992E-15, 0.000000000000000000 ) ) ;
#261 = ORIENTED_EDGE ( 'NONE', *, *, #370, .T. ) ;
#262 = EDGE_CURVE ( 'NONE', #263, #334, #289, .T. ) ;
#263 = VERTEX_POINT ( 'NONE', #120 ) ;
#264 = CIRCLE ( 'NONE', #275, 2.500000000000000000 ) ;
#265 = DIRECTION ( 'NONE',  ( -0.9659258262890701996, 0.2588190451025140226, 3.169619151431684206E-17 ) ) ;
#266 = AXIS2_PLACEMENT_3D ( 'NONE', #292, #247, #3 ) ;
#267 = ORIENTED_EDGE ( 'NONE', *, *, #212, .T. ) ;
#268 = EDGE_LOOP ( 'NONE', ( #12, #136 ) ) ;
#269 = EDGE_LOOP ( 'NONE', ( #403, #337, #241, #164 ) ) ;
#270 = LINE ( 'NONE', #72, #283 ) ;
#271 = EDGE_LOOP ( 'NONE', ( #397, #41 ) ) ;
#272 = DIRECTION ( 'NONE',  ( 1.000000000000000000, 1.289101893839319256E-16, -0.000000000000000000 ) ) ;
#273 = APPROVAL ( #321, 'UNSPECIFIED' ) ;
#274 = VERTEX_POINT ( 'NONE', #286 ) ;
#275 = AXIS2_PLACEMENT_3D ( 'NONE', #115, #379, #89 ) ;
#276 = DIRECTION ( 'NONE',  ( 1.000000000000000000, 8.164311994315680241E-18, -0.000000000000000000 ) ) ;
#277 = DIRECTION ( 'NONE',  ( 0.000000000000000000, 1.000000000000000000, 0.000000000000000000 ) ) ;
#278 = ORIENTED_EDGE ( 'NONE', *, *, #252, .T. ) ;
#279 = EDGE_CURVE ( 'NONE', #199, #360, #100, .T. ) ;
#280 = DIRECTION ( 'NONE',  ( 1.000000000000000000, 0.000000000000000000, 0.000000000000000000 ) ) ;
#281 = CARTESIAN_POINT ( 'NONE',  ( -17.61243556529827003, 2.999999999999993339, 0.000000000000000000 ) ) ;
#282 = CIRCLE ( 'NONE', #66, 2.500000000000000000 ) ;
#283 = VECTOR ( 'NONE', #135, 1000.000000000000000 ) ;
#284 = DIRECTION ( 'NONE',  ( 0.000000000000000000, 1.000000000000000000, 0.000000000000000000 ) ) ;
#285 = CARTESIAN_POINT ( 'NONE',  ( -15.00000000000000000, -1.028058760336856831E-15, 0.000000000000000000 ) ) ;
#286 = CARTESIAN_POINT ( 'NONE',  ( -15.00000000000000000, -2.299999999999999822, 0.000000000000000000 ) ) ;
#287 = PRODUCT_RELATED_PRODUCT_CATEGORY ( 'detail', '', ( #204 ) ) ;
#288 = VECTOR ( 'NONE', #22, 1000.000000000000000 ) ;
#289 = CIRCLE ( 'NONE', #295, 2.299999999999998046 ) ;
#290 = CARTESIAN_POINT ( 'NONE',  ( -7.500000000000000000, -6.123233995736756175E-17, 0.000000000000000000 ) ) ;
#291 = DESIGN_CONTEXT ( 'detailed design', #103, 'design' ) ;
#292 = CARTESIAN_POINT ( 'NONE',  ( -54.39999999999999858, -6.107120222063774992E-15, 0.000000000000000000 ) ) ;
#293 = EDGE_CURVE ( 'NONE', #231, #199, #117, .T. ) ;
#294 = APPROVAL_ROLE ( '' ) ;
#295 = AXIS2_PLACEMENT_3D ( 'NONE', #290, #383, #162 ) ;
#296 = FACE_OUTER_BOUND ( 'NONE', #271, .T. ) ;
#297 = PERSON_AND_ORGANIZATION_ROLE ( 'classification_officer' ) ;
#298 = DIRECTION ( 'NONE',  ( 1.000000000000000000, 1.289101893839319256E-16, -0.000000000000000000 ) ) ;
#299 = ADVANCED_FACE ( 'NONE', ( #296 ), #213, .T. ) ;
#300 = LINE ( 'NONE', #366, #131 ) ;
#301 = ORIENTED_EDGE ( 'NONE', *, *, #252, .F. ) ;
#302 = LINE ( 'NONE', #393, #412 ) ;
#303 = AXIS2_PLACEMENT_3D ( 'NONE', #186, #248, #250 ) ;
#304 = DIRECTION ( 'NONE',  ( 1.000000000000000000, 1.289101893839319256E-16, -0.000000000000000000 ) ) ;
#305 = DIRECTION ( 'NONE',  ( 0.000000000000000000, 1.000000000000000000, 0.000000000000000000 ) ) ;
#306 = AXIS2_PLACEMENT_3D ( 'NONE', #48, #203, #83 ) ;
#307 = EDGE_LOOP ( 'NONE', ( #132, #69, #329, #16 ) ) ;
#308 = AXIS2_PLACEMENT_3D ( 'NONE', #215, #319, #389 ) ;
#309 = ORIENTED_EDGE ( 'NONE', *, *, #382, .T. ) ;
#310 = CARTESIAN_POINT ( 'NONE',  ( -15.00000000000000000, -1.028058760336856831E-15, 0.000000000000000000 ) ) ;
#311 = ORIENTED_EDGE ( 'NONE', *, *, #350, .T. ) ;
#312 = LINE ( 'NONE', #176, #288 ) ;
#313 = DIRECTION ( 'NONE',  ( -8.164311994315680241E-18, 1.000000000000000000, 0.000000000000000000 ) ) ;
#314 = CARTESIAN_POINT ( 'NONE',  ( 0.000000000000000000, 0.000000000000000000, 0.000000000000000000 ) ) ;
#315 = FACE_OUTER_BOUND ( 'NONE', #238, .T. ) ;
#316 = DIRECTION ( 'NONE',  ( 1.000000000000000000, 8.164311994315680241E-18, -0.000000000000000000 ) ) ;
#317 = DIRECTION ( 'NONE',  ( 0.000000000000000000, 1.000000000000000000, 0.000000000000000000 ) ) ;
#318 = DATE_AND_TIME ( #221, #159 ) ;
#319 = DIRECTION ( 'NONE',  ( 1.000000000000000000, 1.289101893839319256E-16, -0.000000000000000000 ) ) ;
#320 = EDGE_CURVE ( 'NONE', #274, #369, #153, .T. ) ;
#321 = APPROVAL_STATUS ( 'not_yet_approved' ) ;
#322 = FACE_OUTER_BOUND ( 'NONE', #269, .T. ) ;
#323 = CALENDAR_DATE ( 2022, 1, 6 ) ;
#324 = VECTOR ( 'NONE', #257, 1000.000000000000000 ) ;
#325 = DIRECTION ( 'NONE',  ( 1.000000000000000000, 1.289101893839319256E-16, -0.000000000000000000 ) ) ;
#326 = APPROVAL_DATE_TIME ( #163, #149 ) ;
#327 = CARTESIAN_POINT ( 'NONE',  ( -7.500000000000000000, -2.999999999999999556, 3.673940397442059375E-16 ) ) ;
#328 = FACE_OUTER_BOUND ( 'NONE', #194, .T. ) ;
#329 = ORIENTED_EDGE ( 'NONE', *, *, #262, .F. ) ;
#330 = ORIENTED_EDGE ( 'NONE', *, *, #93, .F. ) ;
#331 = AXIS2_PLACEMENT_3D ( 'NONE', #113, #112, #206 ) ;
#332 = DIRECTION ( 'NONE',  ( -1.289101893839319256E-16, 1.000000000000000000, 0.000000000000000000 ) ) ;
#333 = VECTOR ( 'NONE', #304, 1000.000000000000000 ) ;
#334 = VERTEX_POINT ( 'NONE', #229 ) ;
#335 = ADVANCED_FACE ( 'NONE', ( #43 ), #202, .T. ) ;
#336 = ORIENTED_EDGE ( 'NONE', *, *, #214, .T. ) ;
#337 = ORIENTED_EDGE ( 'NONE', *, *, #197, .T. ) ;
#338 = ADVANCED_FACE ( 'NONE', ( #227 ), #44, .T. ) ;
#339 = DIRECTION ( 'NONE',  ( 1.000000000000000000, 1.289101893839319256E-16, -0.000000000000000000 ) ) ;
#340 = VECTOR ( 'NONE', #381, 1000.000000000000114 ) ;
#341 = ORIENTED_EDGE ( 'NONE', *, *, #320, .F. ) ;
#342 = PLANE ( 'NONE',  #116 ) ;
#343 = DIRECTION ( 'NONE',  ( -8.164311994315680241E-18, 1.000000000000000000, 0.000000000000000000 ) ) ;
#344 = DIRECTION ( 'NONE',  ( -0.9659258262890700886, -0.2588190451025142447, 0.000000000000000000 ) ) ;
#345 = CLOSED_SHELL ( 'NONE', ( #183, #13, #299, #118 ) ) ;
#346 = CC_DESIGN_DATE_AND_TIME_ASSIGNMENT ( #187, #388, ( #220 ) ) ;
#347 = CIRCLE ( 'NONE', #405, 2.500000000000000000 ) ;
#348 = APPLICATION_PROTOCOL_DEFINITION ( 'international standard', 'config_control_design', 1994, #103 ) ;
#349 = DIRECTION ( 'NONE',  ( 0.000000000000000000, 1.000000000000000000, 0.000000000000000000 ) ) ;
#350 = EDGE_CURVE ( 'NONE', #360, #199, #168, .T. ) ;
#351 = CONICAL_SURFACE ( 'NONE', #410, 2.299999999999998934, 0.2617993877991425800 ) ;
#352 = AXIS2_PLACEMENT_3D ( 'NONE', #151, #29, #222 ) ;
#353 = EDGE_CURVE ( 'NONE', #369, #143, #300, .T. ) ;
#354 = DIRECTION ( 'NONE',  ( 0.000000000000000000, 1.000000000000000000, 0.000000000000000000 ) ) ;
#355 = LOCAL_TIME ( 13, 23, 46.00000000000000000, #96 ) ;
#356 = PERSON_AND_ORGANIZATION ( #56, #144 ) ;
#357 = VERTEX_POINT ( 'NONE', #223 ) ;
#358 = CARTESIAN_POINT ( 'NONE',  ( -54.39999999999999858, -3.000000000000010658, 3.673940397442064798E-16 ) ) ;
#359 = COORDINATED_UNIVERSAL_TIME_OFFSET ( 1, 0, .AHEAD. ) ;
#360 = VERTEX_POINT ( 'NONE', #170 ) ;
#361 = DIRECTION ( 'NONE',  ( 0.000000000000000000, 1.000000000000000000, 0.000000000000000000 ) ) ;
#362 = ORIENTED_EDGE ( 'NONE', *, *, #139, .F. ) ;
#363 = EDGE_LOOP ( 'NONE', ( #408, #46 ) ) ;
#364 = CARTESIAN_POINT ( 'NONE',  ( -7.500000000000000000, -6.123233995736757408E-17, 0.000000000000000000 ) ) ;
#365 = ADVANCED_FACE ( 'NONE', ( #328 ), #217, .T. ) ;
#366 = CARTESIAN_POINT ( 'NONE',  ( -15.00000000000000000, 2.299999999999998046, 2.816687638038911070E-16 ) ) ;
#367 = AXIS2_PLACEMENT_3D ( 'NONE', #364, #70, #332 ) ;
#368 = CARTESIAN_POINT ( 'NONE',  ( -7.500000000000000000, -6.123233995736759873E-17, 0.000000000000000000 ) ) ;
#369 = VERTEX_POINT ( 'NONE', #165 ) ;
#370 = EDGE_CURVE ( 'NONE', #129, #231, #95, .T. ) ;
#371 = DIRECTION ( 'NONE',  ( 1.000000000000000000, 8.164311994315680241E-18, -0.000000000000000000 ) ) ;
#372 = ORIENTED_EDGE ( 'NONE', *, *, #320, .T. ) ;
#373 = CARTESIAN_POINT ( 'NONE',  ( -17.61243556529827003, -2.999999999999996003, 3.673940397442056417E-16 ) ) ;
#374 = AXIS2_PLACEMENT_3D ( 'NONE', #391, #219, #354 ) ;
#375 = ORIENTED_EDGE ( 'NONE', *, *, #197, .F. ) ;
#376 = FACE_OUTER_BOUND ( 'NONE', #169, .T. ) ;
#377 = LINE ( 'NONE', #150, #130 ) ;
#378 = EDGE_CURVE ( 'NONE', #199, #143, #302, .T. ) ;
#379 = DIRECTION ( 'NONE',  ( 1.000000000000000000, 8.164311994315680241E-18, -0.000000000000000000 ) ) ;
#380 = AXIS2_PLACEMENT_3D ( 'NONE', #246, #108, #343 ) ;
#381 = DIRECTION ( 'NONE',  ( 0.7071067811865493491, 0.7071067811865455743, 0.000000000000000000 ) ) ;
#382 = EDGE_CURVE ( 'NONE', #107, #357, #270, .T. ) ;
#383 = DIRECTION ( 'NONE',  ( 1.000000000000000000, 1.289101893839319256E-16, -0.000000000000000000 ) ) ;
#384 = PRODUCT_DEFINITION_FORMATION_WITH_SPECIFIED_SOURCE ( 'ANY', '', #204, .NOT_KNOWN. ) ;
#385 = PERSON_AND_ORGANIZATION ( #56, #144 ) ;
#386 = CARTESIAN_POINT ( 'NONE',  ( -7.500000000000000000, -6.123233995736759873E-17, 0.000000000000000000 ) ) ;
#387 = CIRCLE ( 'NONE', #303, 2.999999999999994671 ) ;
#388 = DATE_TIME_ROLE ( 'creation_date' ) ;
#389 = DIRECTION ( 'NONE',  ( 0.000000000000000000, 1.000000000000000000, 0.000000000000000000 ) ) ;
#390 = PERSON_AND_ORGANIZATION ( #56, #144 ) ;
#391 = CARTESIAN_POINT ( 'NONE',  ( -7.500000000000000000, -6.123233995736759873E-17, 0.000000000000000000 ) ) ;
#392 = APPROVAL_DATE_TIME ( #92, #273 ) ;
#393 = CARTESIAN_POINT ( 'NONE',  ( -7.500000000000000000, 2.999999999999999556, 0.000000000000000000 ) ) ;
#394 = AXIS2_PLACEMENT_3D ( 'NONE', #407, #148, #284 ) ;
#395 = AXIS2_PLACEMENT_3D ( 'NONE', #17, #196, #126 ) ;
#396 = CARTESIAN_POINT ( 'NONE',  ( -55.00000000000000000, -6.184466335694133659E-15, 0.000000000000000000 ) ) ;
#397 = ORIENTED_EDGE ( 'NONE', *, *, #177, .F. ) ;
#398 = EDGE_CURVE ( 'NONE', #360, #49, #404, .T. ) ;
#399 = ORIENTED_EDGE ( 'NONE', *, *, #154, .F. ) ;
#400 = DIRECTION ( 'NONE',  ( 8.164311994315680241E-18, -1.000000000000000000, 0.000000000000000000 ) ) ;
#401 = LOCAL_TIME ( 13, 23, 46.00000000000000000, #359 ) ;
#402 =( NAMED_UNIT ( * ) PLANE_ANGLE_UNIT ( ) SI_UNIT ( $, .RADIAN. ) );
#403 = ORIENTED_EDGE ( 'NONE', *, *, #154, .T. ) ;
#404 = LINE ( 'NONE', #327, #333 ) ;
#405 = AXIS2_PLACEMENT_3D ( 'NONE', #28, #155, #61 ) ;
#406 = VERTEX_POINT ( 'NONE', #192 ) ;
#407 = CARTESIAN_POINT ( 'NONE',  ( -55.00000000000000000, -6.184466335694133659E-15, 0.000000000000000000 ) ) ;
#408 = ORIENTED_EDGE ( 'NONE', *, *, #262, .T. ) ;
#409 = EDGE_LOOP ( 'NONE', ( #125, #267, #309, #224 ) ) ;
#410 = AXIS2_PLACEMENT_3D ( 'NONE', #34, #57, #122 ) ;
#411 = DIRECTION ( 'NONE',  ( -8.164311994315680241E-18, 1.000000000000000000, 0.000000000000000000 ) ) ;
#412 = VECTOR ( 'NONE', #232, 1000.000000000000000 ) ;
#413 = EDGE_CURVE ( 'NONE', #369, #263, #15, .T. ) ;
ENDSEC;
END-ISO-10303-21;
