ISO-10303-21;
HEADER;
FILE_DESCRIPTION (( 'STEP AP203' ),
    '1' );
FILE_NAME ('358882358890.step',
    '2022-06-01T11:23:45',
    ( '' ),
    ( '' ),
    'SwSTEP 2.0',
    'SolidWorks 2019',
    '' );
FILE_SCHEMA (( 'CONFIG_CONTROL_DESIGN' ));
ENDSEC;

DATA;
#1 = EDGE_LOOP ( 'NONE', ( #126, #46 ) ) ;
#2 = PERSON_AND_ORGANIZATION_ROLE ( 'creator' ) ;
#3 = DIRECTION ( 'NONE',  ( 1.000000000000000000, 1.749495427353361681E-17, -0.000000000000000000 ) ) ;
#4 = DATE_AND_TIME ( #60, #109 ) ;
#5 = AXIS2_PLACEMENT_3D ( 'NONE', #345, #58, #145 ) ;
#6 = CARTESIAN_POINT ( 'NONE',  ( -16.85884572681206350, -1.367555078248242830E-15, 0.000000000000000000 ) ) ;
#7 = ADVANCED_FACE ( 'NONE', ( #96 ), #311, .T. ) ;
#8 = DATE_TIME_ROLE ( 'classification_date' ) ;
#9 = ORIENTED_EDGE ( 'NONE', *, *, #163, .F. ) ;
#10 = CARTESIAN_POINT ( 'NONE',  ( -7.000000000000000000, 2.999999999999999556, 0.000000000000000000 ) ) ;
#11 = FACE_OUTER_BOUND ( 'NONE', #300, .T. ) ;
#12 = PERSON_AND_ORGANIZATION_ROLE ( 'creator' ) ;
#13 = DIRECTION ( 'NONE',  ( -1.749495427353361681E-17, 1.000000000000000000, 0.000000000000000000 ) ) ;
#14 = APPLICATION_CONTEXT ( 'configuration controlled 3d designs of mechanical parts and assemblies' ) ;
#15 = DIRECTION ( 'NONE',  ( 1.000000000000000000, 1.262917011620707941E-16, -0.000000000000000000 ) ) ;
#16 = AXIS2_PLACEMENT_3D ( 'NONE', #87, #308, #210 ) ;
#17 = DIRECTION ( 'NONE',  ( 1.000000000000000000, 1.749495427353361681E-17, -0.000000000000000000 ) ) ;
#18 = CC_DESIGN_SECURITY_CLASSIFICATION ( #404, ( #350 ) ) ;
#19 = EDGE_CURVE ( 'NONE', #258, #190, #77, .T. ) ;
#20 = DIRECTION ( 'NONE',  ( 0.000000000000000000, 1.000000000000000000, 0.000000000000000000 ) ) ;
#21 = ADVANCED_FACE ( 'NONE', ( #379 ), #99, .T. ) ;
#22 = DIRECTION ( 'NONE',  ( 0.000000000000000000, -1.000000000000000000, 0.000000000000000000 ) ) ;
#23 = DIRECTION ( 'NONE',  ( 1.000000000000000000, 1.749495427353361681E-17, -0.000000000000000000 ) ) ;
#24 = ORIENTED_EDGE ( 'NONE', *, *, #19, .F. ) ;
#25 = PERSON_AND_ORGANIZATION ( #196, #70 ) ;
#26 = MANIFOLD_SOLID_BREP ( 'Révolution2', #255 ) ;
#27 = DIRECTION ( 'NONE',  ( 1.000000000000000000, 1.262917011620707941E-16, -0.000000000000000000 ) ) ;
#28 = ORIENTED_EDGE ( 'NONE', *, *, #356, .F. ) ;
#29 = LINE ( 'NONE', #124, #93 ) ;
#30 =( NAMED_UNIT ( * ) SI_UNIT ( $, .STERADIAN. ) SOLID_ANGLE_UNIT ( ) );
#31 = APPROVAL ( #131, 'UNSPECIFIED' ) ;
#32 = ORIENTED_EDGE ( 'NONE', *, *, #355, .T. ) ;
#33 = CC_DESIGN_PERSON_AND_ORGANIZATION_ASSIGNMENT ( #375, #2, ( #346 ) ) ;
#34 = AXIS2_PLACEMENT_3D ( 'NONE', #338, #184, #147 ) ;
#35 = UNCERTAINTY_MEASURE_WITH_UNIT (LENGTH_MEASURE( 1.000000000000000082E-05 ), #348, 'distance_accuracy_value', 'NONE');
#36 = EDGE_LOOP ( 'NONE', ( #240, #229, #49, #152 ) ) ;
#37 = PERSON_AND_ORGANIZATION_ROLE ( 'classification_officer' ) ;
#38 = VERTEX_POINT ( 'NONE', #224 ) ;
#39 = CARTESIAN_POINT ( 'NONE',  ( -55.00000000000000000, -2.400000000000010569, 3.306546357697859650E-16 ) ) ;
#40 = COORDINATED_UNIVERSAL_TIME_OFFSET ( 1, 0, .AHEAD. ) ;
#41 = APPLICATION_CONTEXT ( 'configuration controlled 3d designs of mechanical parts and assemblies' ) ;
#42 = DIRECTION ( 'NONE',  ( 1.749495427353361681E-17, -1.000000000000000000, 0.000000000000000000 ) ) ;
#43 = AXIS2_PLACEMENT_3D ( 'NONE', #92, #116, #151 ) ;
#44 = ORIENTED_EDGE ( 'NONE', *, *, #206, .T. ) ;
#45 = CARTESIAN_POINT ( 'NONE',  ( -54.39999999999999858, -6.108691314996890340E-15, 0.000000000000000000 ) ) ;
#46 = ORIENTED_EDGE ( 'NONE', *, *, #320, .F. ) ;
#47 = EDGE_CURVE ( 'NONE', #159, #162, #392, .T. ) ;
#48 = CARTESIAN_POINT ( 'NONE',  ( -7.000000000000000000, -2.999999999999999556, 3.673940397442059375E-16 ) ) ;
#49 = ORIENTED_EDGE ( 'NONE', *, *, #122, .T. ) ;
#50 = CARTESIAN_POINT ( 'NONE',  ( -7.000000000000000000, -1.224646799147353207E-16, 0.000000000000000000 ) ) ;
#51 = ORIENTED_EDGE ( 'NONE', *, *, #195, .F. ) ;
#52 = DIRECTION ( 'NONE',  ( 1.000000000000000000, 1.262917011620707941E-16, -0.000000000000000000 ) ) ;
#53 = ORIENTED_EDGE ( 'NONE', *, *, #163, .T. ) ;
#54 = CARTESIAN_POINT ( 'NONE',  ( -13.50000000000000000, -9.433607374681953714E-16, 0.000000000000000000 ) ) ;
#55 = CIRCLE ( 'NONE', #292, 2.999999999999994671 ) ;
#56 = EDGE_LOOP ( 'NONE', ( #67, #44, #53, #112 ) ) ;
#57 = PERSON_AND_ORGANIZATION_ROLE ( 'design_owner' ) ;
#58 = DIRECTION ( 'NONE',  ( 1.000000000000000000, 1.749495427353361681E-17, -0.000000000000000000 ) ) ;
#59 = ORIENTED_EDGE ( 'NONE', *, *, #406, .F. ) ;
#60 = CALENDAR_DATE ( 2022, 1, 6 ) ;
#61 = DIRECTION ( 'NONE',  ( 0.000000000000000000, 1.000000000000000000, 0.000000000000000000 ) ) ;
#62 = CC_DESIGN_DATE_AND_TIME_ASSIGNMENT ( #133, #8, ( #404 ) ) ;
#63 = ADVANCED_FACE ( 'NONE', ( #299 ), #72, .T. ) ;
#64 = COORDINATED_UNIVERSAL_TIME_OFFSET ( 1, 0, .AHEAD. ) ;
#65 = APPROVAL_PERSON_ORGANIZATION ( #187, #272, #101 ) ;
#66 = APPROVAL_STATUS ( 'not_yet_approved' ) ;
#67 = ORIENTED_EDGE ( 'NONE', *, *, #355, .F. ) ;
#68 = EDGE_LOOP ( 'NONE', ( #275, #287, #382, #51 ) ) ;
#69 = PERSON_AND_ORGANIZATION ( #196, #70 ) ;
#70 = ORGANIZATION ( 'UNSPECIFIED', 'UNSPECIFIED', '' ) ;
#71 = ORIENTED_EDGE ( 'NONE', *, *, #356, .T. ) ;
#72 = PLANE ( 'NONE',  #84 ) ;
#73 = APPROVAL_DATE_TIME ( #4, #154 ) ;
#74 = DIRECTION ( 'NONE',  ( 1.262917011620707941E-16, -1.000000000000000000, 0.000000000000000000 ) ) ;
#75 = ORIENTED_EDGE ( 'NONE', *, *, #19, .T. ) ;
#76 = DIRECTION ( 'NONE',  ( 0.000000000000000000, 1.000000000000000000, 0.000000000000000000 ) ) ;
#77 = CIRCLE ( 'NONE', #291, 2.250000000000000000 ) ;
#78 = CIRCLE ( 'NONE', #43, 3.000000000000004441 ) ;
#79 = DIRECTION ( 'NONE',  ( 1.000000000000000000, 1.262917011620707941E-16, -0.000000000000000000 ) ) ;
#80 = VERTEX_POINT ( 'NONE', #39 ) ;
#81 = DIRECTION ( 'NONE',  ( -0.9659258262890700886, -0.2588190451025142447, 0.000000000000000000 ) ) ;
#82 = ADVANCED_FACE ( 'NONE', ( #261 ), #268, .T. ) ;
#83 = DIRECTION ( 'NONE',  ( 1.000000000000000000, 1.262917011620707941E-16, -0.000000000000000000 ) ) ;
#84 = AXIS2_PLACEMENT_3D ( 'NONE', #362, #111, #42 ) ;
#85 = AXIS2_PLACEMENT_3D ( 'NONE', #45, #15, #172 ) ;
#86 = DIRECTION ( 'NONE',  ( 0.000000000000000000, 1.000000000000000000, 0.000000000000000000 ) ) ;
#87 = CARTESIAN_POINT ( 'NONE',  ( -7.000000000000000000, -1.224646799147353207E-16, 0.000000000000000000 ) ) ;
#88 = VERTEX_POINT ( 'NONE', #358 ) ;
#89 = CARTESIAN_POINT ( 'NONE',  ( -7.000000000000000000, 2.099999999999999645, 0.000000000000000000 ) ) ;
#90 = DIRECTION ( 'NONE',  ( 0.000000000000000000, -1.000000000000000000, 0.000000000000000000 ) ) ;
#91 = CLOSED_SHELL ( 'NONE', ( #110, #384, #285, #136, #182, #82, #7, #205, #252, #21 ) ) ;
#92 = CARTESIAN_POINT ( 'NONE',  ( -54.39999999999999858, -6.108691314996890340E-15, 0.000000000000000000 ) ) ;
#93 = VECTOR ( 'NONE', #117, 1000.000000000000114 ) ;
#94 = LOCAL_TIME ( 13, 23, 45.00000000000000000, #64 ) ;
#95 = APPROVAL_ROLE ( '' ) ;
#96 = FACE_OUTER_BOUND ( 'NONE', #267, .T. ) ;
#97 = DIRECTION ( 'NONE',  ( 1.000000000000000000, 1.749495427353361681E-17, -0.000000000000000000 ) ) ;
#98 = EDGE_CURVE ( 'NONE', #38, #413, #352, .T. ) ;
#99 = CYLINDRICAL_SURFACE ( 'NONE', #143, 2.099999999999999645 ) ;
#100 = VECTOR ( 'NONE', #115, 1000.000000000000000 ) ;
#101 = APPROVAL_ROLE ( '' ) ;
#102 = DIRECTION ( 'NONE',  ( 0.000000000000000000, 1.000000000000000000, 0.000000000000000000 ) ) ;
#103 = EDGE_LOOP ( 'NONE', ( #341, #75, #303, #361 ) ) ;
#104 = ORIENTED_EDGE ( 'NONE', *, *, #372, .T. ) ;
#105 = AXIS2_PLACEMENT_3D ( 'NONE', #166, #108, #13 ) ;
#106 = EDGE_CURVE ( 'NONE', #278, #80, #137, .T. ) ;
#107 = DIRECTION ( 'NONE',  ( 0.000000000000000000, 1.000000000000000000, 0.000000000000000000 ) ) ;
#108 = DIRECTION ( 'NONE',  ( 1.000000000000000000, 1.749495427353361681E-17, -0.000000000000000000 ) ) ;
#109 = LOCAL_TIME ( 13, 23, 45.00000000000000000, #217 ) ;
#110 = ADVANCED_FACE ( 'NONE', ( #236 ), #330, .T. ) ;
#111 = DIRECTION ( 'NONE',  ( -1.000000000000000000, -1.749495427353361681E-17, 0.000000000000000000 ) ) ;
#112 = ORIENTED_EDGE ( 'NONE', *, *, #47, .F. ) ;
#113 = CARTESIAN_POINT ( 'NONE',  ( -16.85884572681206350, -1.367555078248242830E-15, 0.000000000000000000 ) ) ;
#114 = PRODUCT_DEFINITION_SHAPE ( 'NONE', 'NONE',  #346 ) ;
#115 = DIRECTION ( 'NONE',  ( 0.7071067811865496822, -0.7071067811865453523, 8.659560562354908206E-17 ) ) ;
#116 = DIRECTION ( 'NONE',  ( 1.000000000000000000, 1.262917011620707941E-16, -0.000000000000000000 ) ) ;
#117 = DIRECTION ( 'NONE',  ( 0.7071067811865493491, 0.7071067811865455743, 0.000000000000000000 ) ) ;
#118 = CYLINDRICAL_SURFACE ( 'NONE', #130, 2.999999999999999556 ) ;
#119 = ORIENTED_EDGE ( 'NONE', *, *, #320, .T. ) ;
#120 = CC_DESIGN_PERSON_AND_ORGANIZATION_ASSIGNMENT ( #138, #37, ( #404 ) ) ;
#121 = CIRCLE ( 'NONE', #276, 2.100000000000000089 ) ;
#122 = EDGE_CURVE ( 'NONE', #281, #159, #395, .T. ) ;
#123 = ORIENTED_EDGE ( 'NONE', *, *, #134, .T. ) ;
#124 = CARTESIAN_POINT ( 'NONE',  ( -54.39999999999999858, 2.999999999999998224, 0.000000000000000000 ) ) ;
#125 = CARTESIAN_POINT ( 'NONE',  ( 0.000000000000000000, 0.000000000000000000, 0.000000000000000000 ) ) ;
#126 = ORIENTED_EDGE ( 'NONE', *, *, #106, .F. ) ;
#127 = COORDINATED_UNIVERSAL_TIME_OFFSET ( 1, 0, .AHEAD. ) ;
#128 = AXIS2_PLACEMENT_3D ( 'NONE', #324, #192, #253 ) ;
#129 = DIRECTION ( 'NONE',  ( 0.000000000000000000, 1.000000000000000000, 0.000000000000000000 ) ) ;
#130 = AXIS2_PLACEMENT_3D ( 'NONE', #371, #369, #86 ) ;
#131 = APPROVAL_STATUS ( 'not_yet_approved' ) ;
#132 = PLANE ( 'NONE',  #402 ) ;
#133 = DATE_AND_TIME ( #323, #161 ) ;
#134 = EDGE_CURVE ( 'NONE', #373, #364, #296, .T. ) ;
#135 = DIRECTION ( 'NONE',  ( -1.262917011620707941E-16, 1.000000000000000000, 0.000000000000000000 ) ) ;
#136 = ADVANCED_FACE ( 'NONE', ( #11 ), #394, .T. ) ;
#137 = CIRCLE ( 'NONE', #169, 2.400000000000004352 ) ;
#138 = PERSON_AND_ORGANIZATION ( #196, #70 ) ;
#139 = CONICAL_SURFACE ( 'NONE', #367, 2.100000000000000089, 0.2617993877991425800 ) ;
#140 = CARTESIAN_POINT ( 'NONE',  ( -16.85884572681206350, 2.999999999999993339, 0.000000000000000000 ) ) ;
#141 = PERSON_AND_ORGANIZATION_ROLE ( 'design_supplier' ) ;
#142 = LINE ( 'NONE', #10, #410 ) ;
#143 = AXIS2_PLACEMENT_3D ( 'NONE', #222, #256, #102 ) ;
#144 = VECTOR ( 'NONE', #411, 1000.000000000000000 ) ;
#145 = DIRECTION ( 'NONE',  ( -1.749495427353361681E-17, 1.000000000000000000, 0.000000000000000000 ) ) ;
#146 = CYLINDRICAL_SURFACE ( 'NONE', #16, 2.999999999999999556 ) ;
#147 = DIRECTION ( 'NONE',  ( 0.000000000000000000, 1.000000000000000000, 0.000000000000000000 ) ) ;
#148 = ORIENTED_EDGE ( 'NONE', *, *, #347, .T. ) ;
#149 = LINE ( 'NONE', #89, #284 ) ;
#150 = LINE ( 'NONE', #249, #297 ) ;
#151 = DIRECTION ( 'NONE',  ( 0.000000000000000000, 1.000000000000000000, 0.000000000000000000 ) ) ;
#152 = ORIENTED_EDGE ( 'NONE', *, *, #47, .T. ) ;
#153 = DATE_AND_TIME ( #316, #207 ) ;
#154 = APPROVAL ( #279, 'UNSPECIFIED' ) ;
#155 = EDGE_CURVE ( 'NONE', #334, #88, #374, .T. ) ;
#156 = EDGE_LOOP ( 'NONE', ( #403, #312 ) ) ;
#157 = AXIS2_PLACEMENT_3D ( 'NONE', #243, #239, #407 ) ;
#158 =( GEOMETRIC_REPRESENTATION_CONTEXT ( 3 ) GLOBAL_UNCERTAINTY_ASSIGNED_CONTEXT ( ( #35 ) ) GLOBAL_UNIT_ASSIGNED_CONTEXT ( ( #348, #213, #30 ) ) REPRESENTATION_CONTEXT ( 'NONE', 'WORKASPACE' ) );
#159 = VERTEX_POINT ( 'NONE', #333 ) ;
#160 = AXIS2_PLACEMENT_3D ( 'NONE', #198, #203, #332 ) ;
#161 = LOCAL_TIME ( 13, 23, 45.00000000000000000, #40 ) ;
#162 = VERTEX_POINT ( 'NONE', #140 ) ;
#163 = EDGE_CURVE ( 'NONE', #373, #162, #142, .T. ) ;
#164 = ORIENTED_EDGE ( 'NONE', *, *, #302, .T. ) ;
#165 = ADVANCED_FACE ( 'NONE', ( #173 ), #233, .T. ) ;
#166 = CARTESIAN_POINT ( 'NONE',  ( 8.747477136766826891E-18, 1.530367125165164023E-34, 0.000000000000000000 ) ) ;
#167 = DATE_AND_TIME ( #263, #262 ) ;
#168 = CARTESIAN_POINT ( 'NONE',  ( -55.00000000000000000, -6.184466335694132870E-15, 0.000000000000000000 ) ) ;
#169 = AXIS2_PLACEMENT_3D ( 'NONE', #168, #200, #335 ) ;
#170 = ORIENTED_EDGE ( 'NONE', *, *, #329, .F. ) ;
#171 = SHAPE_DEFINITION_REPRESENTATION ( #114, #257 ) ;
#172 = DIRECTION ( 'NONE',  ( 0.000000000000000000, 1.000000000000000000, 0.000000000000000000 ) ) ;
#173 = FACE_OUTER_BOUND ( 'NONE', #390, .T. ) ;
#174 = ORIENTED_EDGE ( 'NONE', *, *, #206, .F. ) ;
#175 = DIRECTION ( 'NONE',  ( 1.000000000000000000, 1.749495427353361681E-17, -0.000000000000000000 ) ) ;
#176 = LINE ( 'NONE', #363, #100 ) ;
#177 = ORIENTED_EDGE ( 'NONE', *, *, #155, .T. ) ;
#178 = DIRECTION ( 'NONE',  ( 1.000000000000000000, 1.262917011620707941E-16, -0.000000000000000000 ) ) ;
#179 = CARTESIAN_POINT ( 'NONE',  ( -13.50000000000000000, -9.433607374681953714E-16, 0.000000000000000000 ) ) ;
#180 = VECTOR ( 'NONE', #398, 999.9999999999998863 ) ;
#181 = DIRECTION ( 'NONE',  ( 0.000000000000000000, 1.000000000000000000, 0.000000000000000000 ) ) ;
#182 = ADVANCED_FACE ( 'NONE', ( #304 ), #132, .T. ) ;
#183 = CARTESIAN_POINT ( 'NONE',  ( -13.50000000000000000, -9.433607374681953714E-16, 0.000000000000000000 ) ) ;
#184 = DIRECTION ( 'NONE',  ( 1.000000000000000000, 1.262917011620707941E-16, -0.000000000000000000 ) ) ;
#185 = ORIENTED_EDGE ( 'NONE', *, *, #329, .T. ) ;
#186 = AXIS2_PLACEMENT_3D ( 'NONE', #231, #295, #107 ) ;
#187 = PERSON_AND_ORGANIZATION ( #196, #70 ) ;
#188 = DESIGN_CONTEXT ( 'detailed design', #14, 'design' ) ;
#189 = CARTESIAN_POINT ( 'NONE',  ( -13.50000000000000000, -9.433607374681953714E-16, 0.000000000000000000 ) ) ;
#190 = VERTEX_POINT ( 'NONE', #359 ) ;
#191 = SECURITY_CLASSIFICATION_LEVEL ( 'unclassified' ) ;
#192 = DIRECTION ( 'NONE',  ( 1.000000000000000000, 1.262917011620707941E-16, -0.000000000000000000 ) ) ;
#193 = APPROVAL_PERSON_ORGANIZATION ( #385, #31, #228 ) ;
#194 = EDGE_CURVE ( 'NONE', #190, #88, #265, .T. ) ;
#195 = EDGE_CURVE ( 'NONE', #413, #38, #248, .T. ) ;
#196 = PERSON ( 'UNSPECIFIED', 'UNSPECIFIED', 'UNSPECIFIED', ('UNSPECIFIED'), ('UNSPECIFIED'), ('UNSPECIFIED') ) ;
#197 = VERTEX_POINT ( 'NONE', #340 ) ;
#198 = CARTESIAN_POINT ( 'NONE',  ( -54.39999999999999858, -6.108691314996890340E-15, 0.000000000000000000 ) ) ;
#199 = CARTESIAN_POINT ( 'NONE',  ( -7.000000000000000000, -1.224646799147352961E-16, 0.000000000000000000 ) ) ;
#200 = DIRECTION ( 'NONE',  ( 1.000000000000000000, 1.262917011620707941E-16, -0.000000000000000000 ) ) ;
#201 = DIRECTION ( 'NONE',  ( 1.000000000000000000, 1.262917011620707941E-16, -0.000000000000000000 ) ) ;
#202 = ORIENTED_EDGE ( 'NONE', *, *, #98, .F. ) ;
#203 = DIRECTION ( 'NONE',  ( 1.000000000000000000, 1.262917011620707941E-16, -0.000000000000000000 ) ) ;
#204 = DIRECTION ( 'NONE',  ( 0.000000000000000000, 1.000000000000000000, 0.000000000000000000 ) ) ;
#205 = ADVANCED_FACE ( 'NONE', ( #211 ), #146, .T. ) ;
#206 = EDGE_CURVE ( 'NONE', #364, #373, #78, .T. ) ;
#207 = LOCAL_TIME ( 13, 23, 45.00000000000000000, #127 ) ;
#208 = CC_DESIGN_PERSON_AND_ORGANIZATION_ASSIGNMENT ( #69, #141, ( #350 ) ) ;
#209 = FACE_OUTER_BOUND ( 'NONE', #103, .T. ) ;
#210 = DIRECTION ( 'NONE',  ( 0.000000000000000000, 1.000000000000000000, 0.000000000000000000 ) ) ;
#211 = FACE_OUTER_BOUND ( 'NONE', #56, .T. ) ;
#212 = EDGE_LOOP ( 'NONE', ( #185, #283, #294, #264 ) ) ;
#213 =( NAMED_UNIT ( * ) PLANE_ANGLE_UNIT ( ) SI_UNIT ( $, .RADIAN. ) );
#214 = AXIS2_PLACEMENT_3D ( 'NONE', #360, #234, #74 ) ;
#215 = CIRCLE ( 'NONE', #157, 2.250000000000000000 ) ;
#216 = CYLINDRICAL_SURFACE ( 'NONE', #5, 2.250000000000000000 ) ;
#217 = COORDINATED_UNIVERSAL_TIME_OFFSET ( 1, 0, .AHEAD. ) ;
#218 = FACE_OUTER_BOUND ( 'NONE', #409, .T. ) ;
#219 = APPLICATION_PROTOCOL_DEFINITION ( 'international standard', 'config_control_design', 1994, #14 ) ;
#220 = VECTOR ( 'NONE', #81, 1000.000000000000000 ) ;
#221 = AXIS2_PLACEMENT_3D ( 'NONE', #368, #27, #181 ) ;
#222 = CARTESIAN_POINT ( 'NONE',  ( -7.000000000000000000, -1.224646799147353207E-16, 0.000000000000000000 ) ) ;
#223 = CARTESIAN_POINT ( 'NONE',  ( -7.000000000000000000, -2.099999999999999645, 2.571758278209440971E-16 ) ) ;
#224 = CARTESIAN_POINT ( 'NONE',  ( -7.000000000000000000, 2.099999999999999201, 0.000000000000000000 ) ) ;
#225 = ADVANCED_FACE ( 'NONE', ( #273 ), #365, .T. ) ;
#226 = CC_DESIGN_PERSON_AND_ORGANIZATION_ASSIGNMENT ( #328, #12, ( #350 ) ) ;
#227 = EDGE_CURVE ( 'NONE', #197, #38, #149, .T. ) ;
#228 = APPROVAL_ROLE ( '' ) ;
#229 = ORIENTED_EDGE ( 'NONE', *, *, #238, .F. ) ;
#230 = AXIS2_PLACEMENT_3D ( 'NONE', #199, #79, #266 ) ;
#231 = CARTESIAN_POINT ( 'NONE',  ( -7.000000000000000000, -1.224646799147353207E-16, 0.000000000000000000 ) ) ;
#232 = DIRECTION ( 'NONE',  ( 1.000000000000000000, 1.262917011620707941E-16, -0.000000000000000000 ) ) ;
#233 = PLANE ( 'NONE',  #353 ) ;
#234 = DIRECTION ( 'NONE',  ( -1.000000000000000000, -1.262917011620707941E-16, 0.000000000000000000 ) ) ;
#235 = AXIS2_PLACEMENT_3D ( 'NONE', #50, #17, #271 ) ;
#236 = FACE_OUTER_BOUND ( 'NONE', #366, .T. ) ;
#237 = DIRECTION ( 'NONE',  ( 1.000000000000000000, 1.262917011620707941E-16, -0.000000000000000000 ) ) ;
#238 = EDGE_CURVE ( 'NONE', #281, #197, #121, .T. ) ;
#239 = DIRECTION ( 'NONE',  ( 1.000000000000000000, 1.749495427353361681E-17, -0.000000000000000000 ) ) ;
#240 = ORIENTED_EDGE ( 'NONE', *, *, #302, .F. ) ;
#241 = AXIS2_PLACEMENT_3D ( 'NONE', #189, #288, #61 ) ;
#242 = DIRECTION ( 'NONE',  ( -1.749495427353361681E-17, 1.000000000000000000, 0.000000000000000000 ) ) ;
#243 = CARTESIAN_POINT ( 'NONE',  ( 8.747477136766826891E-18, 1.530367125165164023E-34, 0.000000000000000000 ) ) ;
#244 = ORIENTED_EDGE ( 'NONE', *, *, #406, .T. ) ;
#245 = LINE ( 'NONE', #223, #144 ) ;
#246 = CARTESIAN_POINT ( 'NONE',  ( 0.000000000000000000, 0.000000000000000000, 0.000000000000000000 ) ) ;
#247 = PERSON_AND_ORGANIZATION ( #196, #70 ) ;
#248 = CIRCLE ( 'NONE', #221, 2.099999999999999201 ) ;
#249 = CARTESIAN_POINT ( 'NONE',  ( 3.936364711545063704E-17, -2.250000000000000000, 2.755455298081544285E-16 ) ) ;
#250 = EDGE_CURVE ( 'NONE', #80, #364, #176, .T. ) ;
#251 = DIRECTION ( 'NONE',  ( 0.000000000000000000, 0.000000000000000000, 1.000000000000000000 ) ) ;
#252 = ADVANCED_FACE ( 'NONE', ( #315 ), #386, .T. ) ;
#253 = DIRECTION ( 'NONE',  ( 0.000000000000000000, 1.000000000000000000, 0.000000000000000000 ) ) ;
#254 = MECHANICAL_CONTEXT ( 'NONE', #41, 'mechanical' ) ;
#255 = CLOSED_SHELL ( 'NONE', ( #225, #165, #63, #319 ) ) ;
#256 = DIRECTION ( 'NONE',  ( 1.000000000000000000, 1.262917011620707941E-16, -0.000000000000000000 ) ) ;
#257 = ADVANCED_BREP_SHAPE_REPRESENTATION ( '358882358890', ( #301, #26, #388 ), #158 ) ;
#258 = VERTEX_POINT ( 'NONE', #277 ) ;
#259 = CARTESIAN_POINT ( 'NONE',  ( -7.000000000000000000, -1.224646799147352961E-16, 0.000000000000000000 ) ) ;
#260 = ORIENTED_EDGE ( 'NONE', *, *, #134, .F. ) ;
#261 = FACE_OUTER_BOUND ( 'NONE', #1, .T. ) ;
#262 = LOCAL_TIME ( 13, 23, 45.00000000000000000, #293 ) ;
#263 = CALENDAR_DATE ( 2022, 1, 6 ) ;
#264 = ORIENTED_EDGE ( 'NONE', *, *, #194, .F. ) ;
#265 = LINE ( 'NONE', #391, #381 ) ;
#266 = DIRECTION ( 'NONE',  ( 0.000000000000000000, 1.000000000000000000, 0.000000000000000000 ) ) ;
#267 = EDGE_LOOP ( 'NONE', ( #309, #119, #71, #174 ) ) ;
#268 = PLANE ( 'NONE',  #214 ) ;
#269 = VECTOR ( 'NONE', #178, 1000.000000000000000 ) ;
#270 = EDGE_CURVE ( 'NONE', #88, #334, #215, .T. ) ;
#271 = DIRECTION ( 'NONE',  ( 0.000000000000000000, 1.000000000000000000, 0.000000000000000000 ) ) ;
#272 = APPROVAL ( #66, 'UNSPECIFIED' ) ;
#273 = FACE_OUTER_BOUND ( 'NONE', #212, .T. ) ;
#274 = CARTESIAN_POINT ( 'NONE',  ( -13.50000000000000000, -2.100000000000000533, 0.000000000000000000 ) ) ;
#275 = ORIENTED_EDGE ( 'NONE', *, *, #372, .F. ) ;
#276 = AXIS2_PLACEMENT_3D ( 'NONE', #179, #83, #20 ) ;
#277 = CARTESIAN_POINT ( 'NONE',  ( -7.000000000000000000, -2.250000000000000000, 2.755455298081544285E-16 ) ) ;
#278 = VERTEX_POINT ( 'NONE', #310 ) ;
#279 = APPROVAL_STATUS ( 'not_yet_approved' ) ;
#280 = DIRECTION ( 'NONE',  ( -1.000000000000000000, -1.262917011620707941E-16, 0.000000000000000000 ) ) ;
#281 = VERTEX_POINT ( 'NONE', #274 ) ;
#282 = APPROVAL_DATE_TIME ( #322, #272 ) ;
#283 = ORIENTED_EDGE ( 'NONE', *, *, #400, .T. ) ;
#284 = VECTOR ( 'NONE', #52, 1000.000000000000000 ) ;
#285 = ADVANCED_FACE ( 'NONE', ( #307 ), #118, .T. ) ;
#286 = CC_DESIGN_PERSON_AND_ORGANIZATION_ASSIGNMENT ( #247, #57, ( #321 ) ) ;
#287 = ORIENTED_EDGE ( 'NONE', *, *, #238, .T. ) ;
#288 = DIRECTION ( 'NONE',  ( 1.000000000000000000, 1.262917011620707941E-16, -0.000000000000000000 ) ) ;
#289 = CALENDAR_DATE ( 2022, 1, 6 ) ;
#290 = ORIENTED_EDGE ( 'NONE', *, *, #122, .F. ) ;
#291 = AXIS2_PLACEMENT_3D ( 'NONE', #326, #3, #129 ) ;
#292 = AXIS2_PLACEMENT_3D ( 'NONE', #113, #237, #204 ) ;
#293 = COORDINATED_UNIVERSAL_TIME_OFFSET ( 1, 0, .AHEAD. ) ;
#294 = ORIENTED_EDGE ( 'NONE', *, *, #270, .F. ) ;
#295 = DIRECTION ( 'NONE',  ( 1.000000000000000000, 1.262917011620707941E-16, -0.000000000000000000 ) ) ;
#296 = CIRCLE ( 'NONE', #160, 3.000000000000004441 ) ;
#297 = VECTOR ( 'NONE', #97, 1000.000000000000000 ) ;
#298 = CARTESIAN_POINT ( 'NONE',  ( -13.50000000000000000, -2.100000000000000533, 0.000000000000000000 ) ) ;
#299 = FACE_OUTER_BOUND ( 'NONE', #331, .T. ) ;
#300 = EDGE_LOOP ( 'NONE', ( #325, #317, #260, #28 ) ) ;
#301 = MANIFOLD_SOLID_BREP ( 'Révolution1', #91 ) ;
#302 = EDGE_CURVE ( 'NONE', #197, #162, #401, .T. ) ;
#303 = ORIENTED_EDGE ( 'NONE', *, *, #194, .T. ) ;
#304 = FACE_OUTER_BOUND ( 'NONE', #156, .T. ) ;
#305 = AXIS2_PLACEMENT_3D ( 'NONE', #246, #342, #242 ) ;
#306 = CC_DESIGN_APPROVAL ( #272, ( #346 ) ) ;
#307 = FACE_OUTER_BOUND ( 'NONE', #408, .T. ) ;
#308 = DIRECTION ( 'NONE',  ( 1.000000000000000000, 1.262917011620707941E-16, -0.000000000000000000 ) ) ;
#309 = ORIENTED_EDGE ( 'NONE', *, *, #250, .F. ) ;
#310 = CARTESIAN_POINT ( 'NONE',  ( -55.00000000000000000, 2.399999999999998579, 0.000000000000000000 ) ) ;
#311 = CONICAL_SURFACE ( 'NONE', #128, 3.000000000000004441, 0.7853981633974453924 ) ;
#312 = ORIENTED_EDGE ( 'NONE', *, *, #195, .T. ) ;
#313 = CIRCLE ( 'NONE', #34, 2.400000000000004352 ) ;
#314 = AXIS2_PLACEMENT_3D ( 'NONE', #54, #280, #22 ) ;
#315 = FACE_OUTER_BOUND ( 'NONE', #36, .T. ) ;
#316 = CALENDAR_DATE ( 2022, 1, 6 ) ;
#317 = ORIENTED_EDGE ( 'NONE', *, *, #250, .T. ) ;
#318 = CARTESIAN_POINT ( 'NONE',  ( -54.39999999999999858, -3.000000000000011102, 3.673940397442065291E-16 ) ) ;
#319 = ADVANCED_FACE ( 'NONE', ( #209 ), #216, .T. ) ;
#320 = EDGE_CURVE ( 'NONE', #80, #278, #313, .T. ) ;
#321 = PRODUCT ( '358882358890', '358882358890', '', ( #254 ) ) ;
#322 = DATE_AND_TIME ( #289, #94 ) ;
#323 = CALENDAR_DATE ( 2022, 1, 6 ) ;
#324 = CARTESIAN_POINT ( 'NONE',  ( -54.39999999999999858, -6.108691314996890340E-15, 0.000000000000000000 ) ) ;
#325 = ORIENTED_EDGE ( 'NONE', *, *, #106, .T. ) ;
#326 = CARTESIAN_POINT ( 'NONE',  ( -7.000000000000000000, -1.224646799147353207E-16, 0.000000000000000000 ) ) ;
#327 = DIRECTION ( 'NONE',  ( -1.749495427353361681E-17, 1.000000000000000000, 0.000000000000000000 ) ) ;
#328 = PERSON_AND_ORGANIZATION ( #196, #70 ) ;
#329 = EDGE_CURVE ( 'NONE', #190, #258, #343, .T. ) ;
#330 = CYLINDRICAL_SURFACE ( 'NONE', #186, 2.099999999999999645 ) ;
#331 = EDGE_LOOP ( 'NONE', ( #170, #24 ) ) ;
#332 = DIRECTION ( 'NONE',  ( 0.000000000000000000, 1.000000000000000000, 0.000000000000000000 ) ) ;
#333 = CARTESIAN_POINT ( 'NONE',  ( -16.85884572681206350, -2.999999999999996003, 3.673940397442056417E-16 ) ) ;
#334 = VERTEX_POINT ( 'NONE', #397 ) ;
#335 = DIRECTION ( 'NONE',  ( 0.000000000000000000, 1.000000000000000000, 0.000000000000000000 ) ) ;
#336 = LINE ( 'NONE', #48, #269 ) ;
#337 = ORIENTED_EDGE ( 'NONE', *, *, #227, .F. ) ;
#338 = CARTESIAN_POINT ( 'NONE',  ( -55.00000000000000000, -6.184466335694132870E-15, 0.000000000000000000 ) ) ;
#339 = ORIENTED_EDGE ( 'NONE', *, *, #347, .F. ) ;
#340 = CARTESIAN_POINT ( 'NONE',  ( -13.50000000000000000, 2.099999999999999201, 3.122849337825747461E-16 ) ) ;
#341 = ORIENTED_EDGE ( 'NONE', *, *, #400, .F. ) ;
#342 = DIRECTION ( 'NONE',  ( 1.000000000000000000, 1.749495427353361681E-17, -0.000000000000000000 ) ) ;
#343 = CIRCLE ( 'NONE', #235, 2.250000000000000000 ) ;
#344 = CC_DESIGN_APPROVAL ( #154, ( #350 ) ) ;
#345 = CARTESIAN_POINT ( 'NONE',  ( 0.000000000000000000, 0.000000000000000000, 0.000000000000000000 ) ) ;
#346 = PRODUCT_DEFINITION ( 'UNKNOWN', '', #350, #188 ) ;
#347 = EDGE_CURVE ( 'NONE', #162, #159, #55, .T. ) ;
#348 =( LENGTH_UNIT ( ) NAMED_UNIT ( * ) SI_UNIT ( .MILLI., .METRE. ) );
#349 = APPLICATION_PROTOCOL_DEFINITION ( 'international standard', 'config_control_design', 1994, #41 ) ;
#350 = PRODUCT_DEFINITION_FORMATION_WITH_SPECIFIED_SOURCE ( 'ANY', '', #321, .NOT_KNOWN. ) ;
#351 = CARTESIAN_POINT ( 'NONE',  ( -7.000000000000000000, -2.099999999999999201, 2.571758278209440478E-16 ) ) ;
#352 = CIRCLE ( 'NONE', #230, 2.099999999999999201 ) ;
#353 = AXIS2_PLACEMENT_3D ( 'NONE', #354, #175, #327 ) ;
#354 = CARTESIAN_POINT ( 'NONE',  ( -3.498990854706722128E-17, 2.250000000000000000, 0.000000000000000000 ) ) ;
#355 = EDGE_CURVE ( 'NONE', #364, #159, #336, .T. ) ;
#356 = EDGE_CURVE ( 'NONE', #278, #373, #29, .T. ) ;
#357 = CC_DESIGN_DATE_AND_TIME_ASSIGNMENT ( #153, #380, ( #346 ) ) ;
#358 = CARTESIAN_POINT ( 'NONE',  ( -3.061616997868381169E-17, 2.250000000000000000, 0.000000000000000000 ) ) ;
#359 = CARTESIAN_POINT ( 'NONE',  ( -7.000000000000000000, 2.250000000000000000, 0.000000000000000000 ) ) ;
#360 = CARTESIAN_POINT ( 'NONE',  ( -55.00000000000000000, -6.184466335694133659E-15, 0.000000000000000000 ) ) ;
#361 = ORIENTED_EDGE ( 'NONE', *, *, #155, .F. ) ;
#362 = CARTESIAN_POINT ( 'NONE',  ( -7.000000000000000000, -1.224646799147353207E-16, 0.000000000000000000 ) ) ;
#363 = CARTESIAN_POINT ( 'NONE',  ( -54.39999999999999858, -3.000000000000010658, 3.673940397442064798E-16 ) ) ;
#364 = VERTEX_POINT ( 'NONE', #318 ) ;
#365 = CYLINDRICAL_SURFACE ( 'NONE', #305, 2.250000000000000000 ) ;
#366 = EDGE_LOOP ( 'NONE', ( #244, #104, #202, #337 ) ) ;
#367 = AXIS2_PLACEMENT_3D ( 'NONE', #183, #377, #90 ) ;
#368 = CARTESIAN_POINT ( 'NONE',  ( -7.000000000000000000, -1.224646799147352961E-16, 0.000000000000000000 ) ) ;
#369 = DIRECTION ( 'NONE',  ( 1.000000000000000000, 1.262917011620707941E-16, -0.000000000000000000 ) ) ;
#370 = CARTESIAN_POINT ( 'NONE',  ( -54.39999999999999858, 2.999999999999997780, 0.000000000000000000 ) ) ;
#371 = CARTESIAN_POINT ( 'NONE',  ( -7.000000000000000000, -1.224646799147353207E-16, 0.000000000000000000 ) ) ;
#372 = EDGE_CURVE ( 'NONE', #281, #413, #245, .T. ) ;
#373 = VERTEX_POINT ( 'NONE', #370 ) ;
#374 = CIRCLE ( 'NONE', #105, 2.250000000000000000 ) ;
#375 = PERSON_AND_ORGANIZATION ( #196, #70 ) ;
#376 = APPROVAL_PERSON_ORGANIZATION ( #25, #154, #95 ) ;
#377 = DIRECTION ( 'NONE',  ( -1.000000000000000000, -1.262917011620707941E-16, 0.000000000000000000 ) ) ;
#378 = DIRECTION ( 'NONE',  ( 1.000000000000000000, 0.000000000000000000, 0.000000000000000000 ) ) ;
#379 = FACE_OUTER_BOUND ( 'NONE', #68, .T. ) ;
#380 = DATE_TIME_ROLE ( 'creation_date' ) ;
#381 = VECTOR ( 'NONE', #23, 1000.000000000000000 ) ;
#382 = ORIENTED_EDGE ( 'NONE', *, *, #227, .T. ) ;
#383 = DIRECTION ( 'NONE',  ( 1.000000000000000000, 1.262917011620707941E-16, -0.000000000000000000 ) ) ;
#384 = ADVANCED_FACE ( 'NONE', ( #218 ), #139, .T. ) ;
#385 = PERSON_AND_ORGANIZATION ( #196, #70 ) ;
#386 = CONICAL_SURFACE ( 'NONE', #314, 2.100000000000000089, 0.2617993877991425800 ) ;
#387 = ORIENTED_EDGE ( 'NONE', *, *, #270, .T. ) ;
#388 = AXIS2_PLACEMENT_3D ( 'NONE', #125, #251, #378 ) ;
#389 = APPROVAL_DATE_TIME ( #167, #31 ) ;
#390 = EDGE_LOOP ( 'NONE', ( #387, #177 ) ) ;
#391 = CARTESIAN_POINT ( 'NONE',  ( -3.936364711545063704E-17, 2.250000000000000000, 0.000000000000000000 ) ) ;
#392 = CIRCLE ( 'NONE', #393, 2.999999999999994671 ) ;
#393 = AXIS2_PLACEMENT_3D ( 'NONE', #6, #232, #76 ) ;
#394 = CONICAL_SURFACE ( 'NONE', #85, 3.000000000000004441, 0.7853981633974453924 ) ;
#395 = LINE ( 'NONE', #298, #220 ) ;
#396 = CC_DESIGN_APPROVAL ( #31, ( #404 ) ) ;
#397 = CARTESIAN_POINT ( 'NONE',  ( 4.811112425221746239E-17, -2.250000000000000000, 2.755455298081544285E-16 ) ) ;
#398 = DIRECTION ( 'NONE',  ( -0.9659258262890701996, 0.2588190451025140226, 3.169619151431684206E-17 ) ) ;
#399 = PRODUCT_RELATED_PRODUCT_CATEGORY ( 'detail', '', ( #321 ) ) ;
#400 = EDGE_CURVE ( 'NONE', #258, #334, #150, .T. ) ;
#401 = LINE ( 'NONE', #405, #180 ) ;
#402 = AXIS2_PLACEMENT_3D ( 'NONE', #259, #383, #135 ) ;
#403 = ORIENTED_EDGE ( 'NONE', *, *, #98, .T. ) ;
#404 = SECURITY_CLASSIFICATION ( '', '', #191 ) ;
#405 = CARTESIAN_POINT ( 'NONE',  ( -13.50000000000000000, 2.099999999999999201, 2.571758278209441464E-16 ) ) ;
#406 = EDGE_CURVE ( 'NONE', #197, #281, #412, .T. ) ;
#407 = DIRECTION ( 'NONE',  ( -1.749495427353361681E-17, 1.000000000000000000, 0.000000000000000000 ) ) ;
#408 = EDGE_LOOP ( 'NONE', ( #123, #32, #339, #9 ) ) ;
#409 = EDGE_LOOP ( 'NONE', ( #59, #164, #148, #290 ) ) ;
#410 = VECTOR ( 'NONE', #201, 1000.000000000000000 ) ;
#411 = DIRECTION ( 'NONE',  ( 1.000000000000000000, 1.262917011620707941E-16, -0.000000000000000000 ) ) ;
#412 = CIRCLE ( 'NONE', #241, 2.100000000000000089 ) ;
#413 = VERTEX_POINT ( 'NONE', #351 ) ;
ENDSEC;
END-ISO-10303-21;
