ISO-10303-21;
HEADER;
FILE_DESCRIPTION (( 'STEP AP203' ),
    '1' );
FILE_NAME ('358882358887.step',
    '2022-06-01T11:23:44',
    ( '' ),
    ( '' ),
    'SwSTEP 2.0',
    'SolidWorks 2019',
    '' );
FILE_SCHEMA (( 'CONFIG_CONTROL_DESIGN' ));
ENDSEC;

DATA;
#1 = ORIENTED_EDGE ( 'NONE', *, *, #185, .F. ) ;
#2 = DIRECTION ( 'NONE',  ( 0.000000000000000000, 1.000000000000000000, 0.000000000000000000 ) ) ;
#3 = ORIENTED_EDGE ( 'NONE', *, *, #352, .F. ) ;
#4 = DIRECTION ( 'NONE',  ( 1.000000000000000000, 1.020538999289461879E-17, -0.000000000000000000 ) ) ;
#5 = CONICAL_SURFACE ( 'NONE', #334, 1.849999999999999645, 0.2617993877991426910 ) ;
#6 = PERSON_AND_ORGANIZATION ( #406, #121 ) ;
#7 = ORIENTED_EDGE ( 'NONE', *, *, #219, .F. ) ;
#8 = FACE_OUTER_BOUND ( 'NONE', #123, .T. ) ;
#9 = CARTESIAN_POINT ( 'NONE',  ( -2.041077998578924066E-17, 2.000000000000000000, 0.000000000000000000 ) ) ;
#10 = CYLINDRICAL_SURFACE ( 'NONE', #150, 2.000000000000000000 ) ;
#11 = CLOSED_SHELL ( 'NONE', ( #273, #156, #347, #400, #111, #179, #331, #257, #68, #14 ) ) ;
#12 = LINE ( 'NONE', #354, #367 ) ;
#13 = DIRECTION ( 'NONE',  ( 1.000000000000000000, 1.249639590966686871E-16, -0.000000000000000000 ) ) ;
#14 = ADVANCED_FACE ( 'NONE', ( #255 ), #108, .T. ) ;
#15 = PERSON_AND_ORGANIZATION_ROLE ( 'creator' ) ;
#16 = ORIENTED_EDGE ( 'NONE', *, *, #219, .T. ) ;
#17 = LINE ( 'NONE', #19, #212 ) ;
#18 = DIRECTION ( 'NONE',  ( 0.000000000000000000, -1.000000000000000000, 0.000000000000000000 ) ) ;
#19 = CARTESIAN_POINT ( 'NONE',  ( -54.39999999999999858, 2.999999999999998224, 0.000000000000000000 ) ) ;
#20 = EDGE_CURVE ( 'NONE', #58, #258, #383, .T. ) ;
#21 = LOCAL_TIME ( 13, 23, 44.00000000000000000, #391 ) ;
#22 = CALENDAR_DATE ( 2022, 1, 6 ) ;
#23 = DIRECTION ( 'NONE',  ( -1.000000000000000000, -1.249639590966686871E-16, 0.000000000000000000 ) ) ;
#24 = CARTESIAN_POINT ( 'NONE',  ( -6.000000000000000000, -6.123233995736772199E-17, 0.000000000000000000 ) ) ;
#25 = ORIENTED_EDGE ( 'NONE', *, *, #382, .T. ) ;
#26 = EDGE_CURVE ( 'NONE', #258, #319, #64, .T. ) ;
#27 = ORIENTED_EDGE ( 'NONE', *, *, #99, .F. ) ;
#28 = ORIENTED_EDGE ( 'NONE', *, *, #56, .F. ) ;
#29 = ORIENTED_EDGE ( 'NONE', *, *, #318, .T. ) ;
#30 = DIRECTION ( 'NONE',  ( 1.000000000000000000, 1.249639590966686871E-16, -0.000000000000000000 ) ) ;
#31 = EDGE_CURVE ( 'NONE', #33, #319, #325, .T. ) ;
#32 = CALENDAR_DATE ( 2022, 1, 6 ) ;
#33 = VERTEX_POINT ( 'NONE', #105 ) ;
#34 = CIRCLE ( 'NONE', #242, 1.849999999999998757 ) ;
#35 = APPROVAL_DATE_TIME ( #186, #193 ) ;
#36 = AXIS2_PLACEMENT_3D ( 'NONE', #292, #253, #360 ) ;
#37 = ORIENTED_EDGE ( 'NONE', *, *, #42, .T. ) ;
#38 = CARTESIAN_POINT ( 'NONE',  ( 0.000000000000000000, 0.000000000000000000, 0.000000000000000000 ) ) ;
#39 = DIRECTION ( 'NONE',  ( 1.000000000000000000, 1.249639590966686871E-16, -0.000000000000000000 ) ) ;
#40 = DIRECTION ( 'NONE',  ( 0.7071067811865493491, 0.7071067811865455743, 0.000000000000000000 ) ) ;
#41 = CARTESIAN_POINT ( 'NONE',  ( -16.29185842870430889, -1.347343715670677748E-15, 0.000000000000000000 ) ) ;
#42 = EDGE_CURVE ( 'NONE', #279, #274, #34, .T. ) ;
#43 = CALENDAR_DATE ( 2022, 1, 6 ) ;
#44 = CARTESIAN_POINT ( 'NONE',  ( -6.000000000000000000, 2.999999999999999556, 0.000000000000000000 ) ) ;
#45 = CARTESIAN_POINT ( 'NONE',  ( -55.00000000000000000, -6.184466335694132870E-15, 0.000000000000000000 ) ) ;
#46 = CARTESIAN_POINT ( 'NONE',  ( 0.000000000000000000, 0.000000000000000000, 0.000000000000000000 ) ) ;
#47 = DIRECTION ( 'NONE',  ( 1.000000000000000000, 1.020538999289461879E-17, -0.000000000000000000 ) ) ;
#48 = DATE_AND_TIME ( #22, #153 ) ;
#49 = AXIS2_PLACEMENT_3D ( 'NONE', #326, #47, #170 ) ;
#50 = DIRECTION ( 'NONE',  ( 0.000000000000000000, 1.000000000000000000, 0.000000000000000000 ) ) ;
#51 = PLANE ( 'NONE',  #396 ) ;
#52 = LINE ( 'NONE', #407, #290 ) ;
#53 = CIRCLE ( 'NONE', #370, 2.000000000000000000 ) ;
#54 = FACE_OUTER_BOUND ( 'NONE', #141, .T. ) ;
#55 = DIRECTION ( 'NONE',  ( 0.7071067811865496822, -0.7071067811865453523, 8.659560562354908206E-17 ) ) ;
#56 = EDGE_CURVE ( 'NONE', #308, #243, #248, .T. ) ;
#57 = ORIENTED_EDGE ( 'NONE', *, *, #293, .F. ) ;
#58 = VERTEX_POINT ( 'NONE', #322 ) ;
#59 = CLOSED_SHELL ( 'NONE', ( #244, #288, #341, #83 ) ) ;
#60 = ORIENTED_EDGE ( 'NONE', *, *, #20, .F. ) ;
#61 = CARTESIAN_POINT ( 'NONE',  ( -16.29185842870430889, -2.999999999999996003, 3.673940397442056417E-16 ) ) ;
#62 = EDGE_LOOP ( 'NONE', ( #208, #178, #245, #338 ) ) ;
#63 = CARTESIAN_POINT ( 'NONE',  ( -6.000000000000000000, -6.123233995736772199E-17, 0.000000000000000000 ) ) ;
#64 = CIRCLE ( 'NONE', #196, 2.000000000000000000 ) ;
#65 = CIRCLE ( 'NONE', #386, 1.849999999999999423 ) ;
#66 = DIRECTION ( 'NONE',  ( 1.000000000000000000, 1.020538999289461879E-17, -0.000000000000000000 ) ) ;
#67 =( NAMED_UNIT ( * ) SI_UNIT ( $, .STERADIAN. ) SOLID_ANGLE_UNIT ( ) );
#68 = ADVANCED_FACE ( 'NONE', ( #157 ), #5, .T. ) ;
#69 = DIRECTION ( 'NONE',  ( 1.000000000000000000, 1.249639590966686871E-16, -0.000000000000000000 ) ) ;
#70 = PLANE ( 'NONE',  #398 ) ;
#71 = ORIENTED_EDGE ( 'NONE', *, *, #26, .T. ) ;
#72 = DIRECTION ( 'NONE',  ( -1.000000000000000000, -1.020538999289461879E-17, 0.000000000000000000 ) ) ;
#73 = AXIS2_PLACEMENT_3D ( 'NONE', #168, #129, #291 ) ;
#74 = AXIS2_PLACEMENT_3D ( 'NONE', #236, #231, #299 ) ;
#75 = DIRECTION ( 'NONE',  ( 0.000000000000000000, 1.000000000000000000, 0.000000000000000000 ) ) ;
#76 = DIRECTION ( 'NONE',  ( 0.000000000000000000, 1.000000000000000000, 0.000000000000000000 ) ) ;
#77 = CARTESIAN_POINT ( 'NONE',  ( -12.00000000000000000, 1.849999999999998757, 2.265596578422602607E-16 ) ) ;
#78 =( LENGTH_UNIT ( ) NAMED_UNIT ( * ) SI_UNIT ( .MILLI., .METRE. ) );
#79 = PERSON_AND_ORGANIZATION ( #406, #121 ) ;
#80 = AXIS2_PLACEMENT_3D ( 'NONE', #110, #241, #330 ) ;
#81 = CIRCLE ( 'NONE', #74, 2.400000000000004352 ) ;
#82 = PERSON_AND_ORGANIZATION_ROLE ( 'classification_officer' ) ;
#83 = ADVANCED_FACE ( 'NONE', ( #287 ), #10, .T. ) ;
#84 = DIRECTION ( 'NONE',  ( 1.000000000000000000, 1.249639590966686871E-16, -0.000000000000000000 ) ) ;
#85 =( GEOMETRIC_REPRESENTATION_CONTEXT ( 3 ) GLOBAL_UNCERTAINTY_ASSIGNED_CONTEXT ( ( #340 ) ) GLOBAL_UNIT_ASSIGNED_CONTEXT ( ( #78, #327, #67 ) ) REPRESENTATION_CONTEXT ( 'NONE', 'WORKASPACE' ) );
#86 = EDGE_CURVE ( 'NONE', #408, #243, #387, .T. ) ;
#87 = CC_DESIGN_APPROVAL ( #167, ( #388 ) ) ;
#88 = VERTEX_POINT ( 'NONE', #101 ) ;
#89 = DIRECTION ( 'NONE',  ( -1.020538999289461879E-17, 1.000000000000000000, 0.000000000000000000 ) ) ;
#90 = ORIENTED_EDGE ( 'NONE', *, *, #364, .T. ) ;
#91 = ORIENTED_EDGE ( 'NONE', *, *, #235, .F. ) ;
#92 = DIRECTION ( 'NONE',  ( 1.000000000000000000, 1.249639590966686871E-16, -0.000000000000000000 ) ) ;
#93 = ORIENTED_EDGE ( 'NONE', *, *, #373, .F. ) ;
#94 = CARTESIAN_POINT ( 'NONE',  ( -16.29185842870430889, -1.347343715670677748E-15, 0.000000000000000000 ) ) ;
#95 = DATE_TIME_ROLE ( 'creation_date' ) ;
#96 = ORIENTED_EDGE ( 'NONE', *, *, #209, .F. ) ;
#97 = DIRECTION ( 'NONE',  ( 0.000000000000000000, 1.000000000000000000, 0.000000000000000000 ) ) ;
#98 = ORIENTED_EDGE ( 'NONE', *, *, #31, .T. ) ;
#99 = EDGE_CURVE ( 'NONE', #180, #279, #12, .T. ) ;
#100 = CIRCLE ( 'NONE', #232, 2.999999999999994671 ) ;
#101 = CARTESIAN_POINT ( 'NONE',  ( -12.00000000000000000, 1.849999999999998535, 2.969768487932327540E-16 ) ) ;
#102 = APPROVAL_ROLE ( '' ) ;
#103 = ORIENTED_EDGE ( 'NONE', *, *, #364, .F. ) ;
#104 = DIRECTION ( 'NONE',  ( -0.9659258262890700886, -0.2588190451025143557, 0.000000000000000000 ) ) ;
#105 = CARTESIAN_POINT ( 'NONE',  ( -6.000000000000000000, 2.000000000000000000, 0.000000000000000000 ) ) ;
#106 = DIRECTION ( 'NONE',  ( 0.000000000000000000, 1.000000000000000000, 0.000000000000000000 ) ) ;
#107 = COORDINATED_UNIVERSAL_TIME_OFFSET ( 1, 0, .AHEAD. ) ;
#108 = CYLINDRICAL_SURFACE ( 'NONE', #220, 1.849999999999999201 ) ;
#109 = DIRECTION ( 'NONE',  ( 1.020538999289461879E-17, -1.000000000000000000, 0.000000000000000000 ) ) ;
#110 = CARTESIAN_POINT ( 'NONE',  ( -12.00000000000000000, -8.110160945373798444E-16, 0.000000000000000000 ) ) ;
#111 = ADVANCED_FACE ( 'NONE', ( #160 ), #289, .T. ) ;
#112 = LINE ( 'NONE', #238, #222 ) ;
#113 = ORIENTED_EDGE ( 'NONE', *, *, #86, .T. ) ;
#114 = CIRCLE ( 'NONE', #36, 3.000000000000004441 ) ;
#115 = DIRECTION ( 'NONE',  ( -1.020538999289462033E-17, 1.000000000000000000, 0.000000000000000000 ) ) ;
#116 = EDGE_LOOP ( 'NONE', ( #285, #356, #390, #145 ) ) ;
#117 = EDGE_LOOP ( 'NONE', ( #294, #93, #29, #246 ) ) ;
#118 = CARTESIAN_POINT ( 'NONE',  ( 1.020538999289464344E-17, -2.000000000000000000, 2.449293598294706414E-16 ) ) ;
#119 = ORIENTED_EDGE ( 'NONE', *, *, #139, .T. ) ;
#120 = CARTESIAN_POINT ( 'NONE',  ( -6.000000000000000000, -6.123233995736772199E-17, 0.000000000000000000 ) ) ;
#121 = ORGANIZATION ( 'UNSPECIFIED', 'UNSPECIFIED', '' ) ;
#122 = APPROVAL_STATUS ( 'not_yet_approved' ) ;
#123 = EDGE_LOOP ( 'NONE', ( #119, #182, #96, #91 ) ) ;
#124 = DIRECTION ( 'NONE',  ( 1.000000000000000000, 1.020538999289461879E-17, -0.000000000000000000 ) ) ;
#125 = CC_DESIGN_DATE_AND_TIME_ASSIGNMENT ( #149, #95, ( #215 ) ) ;
#126 = DIRECTION ( 'NONE',  ( -1.020538999289462033E-17, 1.000000000000000000, 0.000000000000000000 ) ) ;
#127 = CIRCLE ( 'NONE', #401, 1.849999999999998757 ) ;
#128 = APPROVAL_PERSON_ORGANIZATION ( #6, #193, #251 ) ;
#129 = DIRECTION ( 'NONE',  ( 1.000000000000000000, 1.249639590966686871E-16, -0.000000000000000000 ) ) ;
#130 = COORDINATED_UNIVERSAL_TIME_OFFSET ( 1, 0, .AHEAD. ) ;
#131 = DIRECTION ( 'NONE',  ( 1.000000000000000000, 1.249639590966686871E-16, -0.000000000000000000 ) ) ;
#132 = CARTESIAN_POINT ( 'NONE',  ( -54.39999999999999858, -6.109487960236132274E-15, 0.000000000000000000 ) ) ;
#133 = PERSON_AND_ORGANIZATION ( #406, #121 ) ;
#134 = DIRECTION ( 'NONE',  ( -1.020538999289462033E-17, 1.000000000000000000, 0.000000000000000000 ) ) ;
#135 = APPROVAL_PERSON_ORGANIZATION ( #254, #269, #102 ) ;
#136 = CARTESIAN_POINT ( 'NONE',  ( -12.00000000000000000, -1.850000000000000311, 0.000000000000000000 ) ) ;
#137 = PRODUCT ( '358882358887', '358882358887', '', ( #314 ) ) ;
#138 = CONICAL_SURFACE ( 'NONE', #378, 3.000000000000004441, 0.7853981633974453924 ) ;
#139 = EDGE_CURVE ( 'NONE', #88, #180, #187, .T. ) ;
#140 = DIRECTION ( 'NONE',  ( 1.249639590966686871E-16, -1.000000000000000000, 0.000000000000000000 ) ) ;
#141 = EDGE_LOOP ( 'NONE', ( #3, #218 ) ) ;
#142 = CARTESIAN_POINT ( 'NONE',  ( -16.29185842870430889, 2.999999999999993339, 0.000000000000000000 ) ) ;
#143 = EDGE_LOOP ( 'NONE', ( #381, #411, #103, #183 ) ) ;
#144 = AXIS2_PLACEMENT_3D ( 'NONE', #45, #223, #106 ) ;
#145 = ORIENTED_EDGE ( 'NONE', *, *, #318, .F. ) ;
#146 = EDGE_CURVE ( 'NONE', #319, #258, #172, .T. ) ;
#147 = ORIENTED_EDGE ( 'NONE', *, *, #412, .T. ) ;
#148 = CARTESIAN_POINT ( 'NONE',  ( -6.000000000000000000, -1.849999999999998757, 2.265596578422602114E-16 ) ) ;
#149 = DATE_AND_TIME ( #32, #349 ) ;
#150 = AXIS2_PLACEMENT_3D ( 'NONE', #46, #315, #126 ) ;
#151 = ORIENTED_EDGE ( 'NONE', *, *, #264, .F. ) ;
#152 = VECTOR ( 'NONE', #104, 999.9999999999998863 ) ;
#153 = LOCAL_TIME ( 13, 23, 44.00000000000000000, #107 ) ;
#154 = EDGE_CURVE ( 'NONE', #88, #243, #297, .T. ) ;
#155 = VERTEX_POINT ( 'NONE', #262 ) ;
#156 = ADVANCED_FACE ( 'NONE', ( #296 ), #206, .T. ) ;
#157 = FACE_OUTER_BOUND ( 'NONE', #117, .T. ) ;
#158 = CARTESIAN_POINT ( 'NONE',  ( -3.061616997868383634E-17, 2.000000000000000000, 0.000000000000000000 ) ) ;
#159 = PERSON_AND_ORGANIZATION_ROLE ( 'design_owner' ) ;
#160 = FACE_OUTER_BOUND ( 'NONE', #345, .T. ) ;
#161 = APPLICATION_CONTEXT ( 'configuration controlled 3d designs of mechanical parts and assemblies' ) ;
#162 = CIRCLE ( 'NONE', #348, 2.000000000000000000 ) ;
#163 = DIRECTION ( 'NONE',  ( -0.9659258262890700886, 0.2588190451025141336, 3.169619151431684823E-17 ) ) ;
#164 = PERSON_AND_ORGANIZATION ( #406, #121 ) ;
#165 = EDGE_LOOP ( 'NONE', ( #346, #147, #25, #7 ) ) ;
#166 = CARTESIAN_POINT ( 'NONE',  ( -6.000000000000000000, -6.123233995736772199E-17, 0.000000000000000000 ) ) ;
#167 = APPROVAL ( #363, 'UNSPECIFIED' ) ;
#168 = CARTESIAN_POINT ( 'NONE',  ( -6.000000000000000000, -6.123233995736770966E-17, 0.000000000000000000 ) ) ;
#169 = CARTESIAN_POINT ( 'NONE',  ( -12.00000000000000000, -1.850000000000000533, 0.000000000000000000 ) ) ;
#170 = DIRECTION ( 'NONE',  ( -1.020538999289462033E-17, 1.000000000000000000, 0.000000000000000000 ) ) ;
#171 = DIRECTION ( 'NONE',  ( 0.000000000000000000, 1.000000000000000000, 0.000000000000000000 ) ) ;
#172 = CIRCLE ( 'NONE', #49, 2.000000000000000000 ) ;
#173 = CYLINDRICAL_SURFACE ( 'NONE', #175, 2.999999999999999556 ) ;
#174 = VECTOR ( 'NONE', #66, 1000.000000000000000 ) ;
#175 = AXIS2_PLACEMENT_3D ( 'NONE', #63, #276, #2 ) ;
#176 = DIRECTION ( 'NONE',  ( 0.000000000000000000, 1.000000000000000000, 0.000000000000000000 ) ) ;
#177 = PRODUCT_DEFINITION_SHAPE ( 'NONE', 'NONE',  #215 ) ;
#178 = ORIENTED_EDGE ( 'NONE', *, *, #20, .T. ) ;
#179 = ADVANCED_FACE ( 'NONE', ( #54 ), #51, .T. ) ;
#180 = VERTEX_POINT ( 'NONE', #136 ) ;
#181 = AXIS2_PLACEMENT_3D ( 'NONE', #195, #13, #323 ) ;
#182 = ORIENTED_EDGE ( 'NONE', *, *, #99, .T. ) ;
#183 = ORIENTED_EDGE ( 'NONE', *, *, #382, .F. ) ;
#184 = CARTESIAN_POINT ( 'NONE',  ( -55.00000000000000000, 2.399999999999998579, 0.000000000000000000 ) ) ;
#185 = EDGE_CURVE ( 'NONE', #58, #33, #162, .T. ) ;
#186 = DATE_AND_TIME ( #217, #410 ) ;
#187 = CIRCLE ( 'NONE', #298, 1.849999999999999423 ) ;
#188 = CARTESIAN_POINT ( 'NONE',  ( -12.00000000000000000, -8.110160945373798444E-16, 0.000000000000000000 ) ) ;
#189 = DIRECTION ( 'NONE',  ( 0.000000000000000000, 1.000000000000000000, 0.000000000000000000 ) ) ;
#190 = DIRECTION ( 'NONE',  ( 1.000000000000000000, 1.249639590966686871E-16, -0.000000000000000000 ) ) ;
#191 = DIRECTION ( 'NONE',  ( 1.000000000000000000, 1.020538999289461879E-17, -0.000000000000000000 ) ) ;
#192 = CARTESIAN_POINT ( 'NONE',  ( 2.041077998578924066E-17, -2.000000000000000000, 2.449293598294706414E-16 ) ) ;
#193 = APPROVAL ( #122, 'UNSPECIFIED' ) ;
#194 = AXIS2_PLACEMENT_3D ( 'NONE', #41, #39, #75 ) ;
#195 = CARTESIAN_POINT ( 'NONE',  ( -6.000000000000000000, -6.123233995736772199E-17, 0.000000000000000000 ) ) ;
#196 = AXIS2_PLACEMENT_3D ( 'NONE', #361, #124, #134 ) ;
#197 = CARTESIAN_POINT ( 'NONE',  ( -6.000000000000000000, -6.123233995736772199E-17, 0.000000000000000000 ) ) ;
#198 = DIRECTION ( 'NONE',  ( 0.000000000000000000, 1.000000000000000000, 0.000000000000000000 ) ) ;
#199 = DATE_TIME_ROLE ( 'classification_date' ) ;
#200 = CC_DESIGN_PERSON_AND_ORGANIZATION_ASSIGNMENT ( #389, #159, ( #137 ) ) ;
#201 = CALENDAR_DATE ( 2022, 1, 6 ) ;
#202 = EDGE_CURVE ( 'NONE', #155, #392, #112, .T. ) ;
#203 = CC_DESIGN_DATE_AND_TIME_ASSIGNMENT ( #204, #199, ( #388 ) ) ;
#204 = DATE_AND_TIME ( #201, #342 ) ;
#205 = CARTESIAN_POINT ( 'NONE',  ( -6.000000000000000000, -2.999999999999999556, 3.673940397442059375E-16 ) ) ;
#206 = CONICAL_SURFACE ( 'NONE', #80, 1.849999999999999645, 0.2617993877991426910 ) ;
#207 = VECTOR ( 'NONE', #84, 1000.000000000000000 ) ;
#208 = ORIENTED_EDGE ( 'NONE', *, *, #293, .T. ) ;
#209 = EDGE_CURVE ( 'NONE', #274, #279, #127, .T. ) ;
#210 = EDGE_LOOP ( 'NONE', ( #57, #1 ) ) ;
#211 = CIRCLE ( 'NONE', #300, 3.000000000000004441 ) ;
#212 = VECTOR ( 'NONE', #40, 1000.000000000000114 ) ;
#213 = PLANE ( 'NONE',  #339 ) ;
#214 = ORIENTED_EDGE ( 'NONE', *, *, #26, .F. ) ;
#215 = PRODUCT_DEFINITION ( 'UNKNOWN', '', #283, #353 ) ;
#216 = CARTESIAN_POINT ( 'NONE',  ( -2.551347498223653542E-17, 2.000000000000000000, 0.000000000000000000 ) ) ;
#217 = CALENDAR_DATE ( 2022, 1, 6 ) ;
#218 = ORIENTED_EDGE ( 'NONE', *, *, #412, .F. ) ;
#219 = EDGE_CURVE ( 'NONE', #392, #408, #211, .T. ) ;
#220 = AXIS2_PLACEMENT_3D ( 'NONE', #197, #131, #227 ) ;
#221 = EDGE_LOOP ( 'NONE', ( #27, #224, #375, #337 ) ) ;
#222 = VECTOR ( 'NONE', #55, 1000.000000000000000 ) ;
#223 = DIRECTION ( 'NONE',  ( 1.000000000000000000, 1.249639590966686871E-16, -0.000000000000000000 ) ) ;
#224 = ORIENTED_EDGE ( 'NONE', *, *, #373, .T. ) ;
#225 = DIRECTION ( 'NONE',  ( 1.000000000000000000, 1.249639590966686871E-16, -0.000000000000000000 ) ) ;
#226 = EDGE_CURVE ( 'NONE', #392, #308, #268, .T. ) ;
#227 = DIRECTION ( 'NONE',  ( 0.000000000000000000, 1.000000000000000000, 0.000000000000000000 ) ) ;
#228 = FACE_OUTER_BOUND ( 'NONE', #210, .T. ) ;
#229 = DATE_AND_TIME ( #43, #21 ) ;
#230 = ORIENTED_EDGE ( 'NONE', *, *, #209, .T. ) ;
#231 = DIRECTION ( 'NONE',  ( 1.000000000000000000, 1.249639590966686871E-16, -0.000000000000000000 ) ) ;
#232 = AXIS2_PLACEMENT_3D ( 'NONE', #94, #92, #247 ) ;
#233 = SHAPE_DEFINITION_REPRESENTATION ( #177, #278 ) ;
#234 = CARTESIAN_POINT ( 'NONE',  ( -6.000000000000000000, -6.123233995736769734E-17, 0.000000000000000000 ) ) ;
#235 = EDGE_CURVE ( 'NONE', #88, #274, #52, .T. ) ;
#236 = CARTESIAN_POINT ( 'NONE',  ( -55.00000000000000000, -6.184466335694132870E-15, 0.000000000000000000 ) ) ;
#237 = COORDINATED_UNIVERSAL_TIME_OFFSET ( 1, 0, .AHEAD. ) ;
#238 = CARTESIAN_POINT ( 'NONE',  ( -54.39999999999999858, -3.000000000000010658, 3.673940397442064798E-16 ) ) ;
#239 = PERSON_AND_ORGANIZATION_ROLE ( 'creator' ) ;
#240 = PERSON_AND_ORGANIZATION_ROLE ( 'design_supplier' ) ;
#241 = DIRECTION ( 'NONE',  ( -1.000000000000000000, -1.249639590966686871E-16, 0.000000000000000000 ) ) ;
#242 = AXIS2_PLACEMENT_3D ( 'NONE', #234, #190, #252 ) ;
#243 = VERTEX_POINT ( 'NONE', #142 ) ;
#244 = ADVANCED_FACE ( 'NONE', ( #333 ), #275, .T. ) ;
#245 = ORIENTED_EDGE ( 'NONE', *, *, #146, .F. ) ;
#246 = ORIENTED_EDGE ( 'NONE', *, *, #56, .T. ) ;
#247 = DIRECTION ( 'NONE',  ( 0.000000000000000000, 1.000000000000000000, 0.000000000000000000 ) ) ;
#248 = CIRCLE ( 'NONE', #194, 2.999999999999994671 ) ;
#249 = EDGE_LOOP ( 'NONE', ( #60, #371, #98, #214 ) ) ;
#250 = DIRECTION ( 'NONE',  ( 1.000000000000000000, 1.020538999289461879E-17, -0.000000000000000000 ) ) ;
#251 = APPROVAL_ROLE ( '' ) ;
#252 = DIRECTION ( 'NONE',  ( 0.000000000000000000, 1.000000000000000000, 0.000000000000000000 ) ) ;
#253 = DIRECTION ( 'NONE',  ( 1.000000000000000000, 1.249639590966686871E-16, -0.000000000000000000 ) ) ;
#254 = PERSON_AND_ORGANIZATION ( #406, #121 ) ;
#255 = FACE_OUTER_BOUND ( 'NONE', #221, .T. ) ;
#256 = FACE_OUTER_BOUND ( 'NONE', #143, .T. ) ;
#257 = ADVANCED_FACE ( 'NONE', ( #362 ), #173, .T. ) ;
#258 = VERTEX_POINT ( 'NONE', #118 ) ;
#259 = CARTESIAN_POINT ( 'NONE',  ( -12.00000000000000000, -8.110160945373798444E-16, 0.000000000000000000 ) ) ;
#260 = CARTESIAN_POINT ( 'NONE',  ( -12.00000000000000000, -8.110160945373798444E-16, 0.000000000000000000 ) ) ;
#261 = CARTESIAN_POINT ( 'NONE',  ( -54.39999999999999858, 2.999999999999997780, 0.000000000000000000 ) ) ;
#262 = CARTESIAN_POINT ( 'NONE',  ( -55.00000000000000000, -2.400000000000010569, 3.306546357697859650E-16 ) ) ;
#263 = PERSON_AND_ORGANIZATION ( #406, #121 ) ;
#264 = EDGE_CURVE ( 'NONE', #243, #308, #100, .T. ) ;
#265 = DIRECTION ( 'NONE',  ( -1.000000000000000000, -1.249639590966686871E-16, 0.000000000000000000 ) ) ;
#266 = CYLINDRICAL_SURFACE ( 'NONE', #181, 2.999999999999999556 ) ;
#267 = APPROVAL_PERSON_ORGANIZATION ( #133, #167, #394 ) ;
#268 = LINE ( 'NONE', #205, #207 ) ;
#269 = APPROVAL ( #385, 'UNSPECIFIED' ) ;
#270 = AXIS2_PLACEMENT_3D ( 'NONE', #304, #409, #115 ) ;
#271 = DIRECTION ( 'NONE',  ( 1.000000000000000000, 1.020538999289461879E-17, -0.000000000000000000 ) ) ;
#272 = DIRECTION ( 'NONE',  ( 1.000000000000000000, 1.249639590966686871E-16, -0.000000000000000000 ) ) ;
#273 = ADVANCED_FACE ( 'NONE', ( #8 ), #376, .T. ) ;
#274 = VERTEX_POINT ( 'NONE', #317 ) ;
#275 = CYLINDRICAL_SURFACE ( 'NONE', #270, 2.000000000000000000 ) ;
#276 = DIRECTION ( 'NONE',  ( 1.000000000000000000, 1.249639590966686871E-16, -0.000000000000000000 ) ) ;
#277 = ORIENTED_EDGE ( 'NONE', *, *, #146, .T. ) ;
#278 = ADVANCED_BREP_SHAPE_REPRESENTATION ( '358882358887', ( #309, #310, #305 ), #85 ) ;
#279 = VERTEX_POINT ( 'NONE', #148 ) ;
#280 = CARTESIAN_POINT ( 'NONE',  ( -6.000000000000000000, -6.123233995736772199E-17, 0.000000000000000000 ) ) ;
#281 = APPROVAL_DATE_TIME ( #229, #269 ) ;
#282 = CC_DESIGN_APPROVAL ( #269, ( #215 ) ) ;
#283 = PRODUCT_DEFINITION_FORMATION_WITH_SPECIFIED_SOURCE ( 'ANY', '', #137, .NOT_KNOWN. ) ;
#284 = PERSON_AND_ORGANIZATION ( #406, #121 ) ;
#285 = ORIENTED_EDGE ( 'NONE', *, *, #139, .F. ) ;
#286 = DIRECTION ( 'NONE',  ( 0.000000000000000000, 0.000000000000000000, 1.000000000000000000 ) ) ;
#287 = FACE_OUTER_BOUND ( 'NONE', #249, .T. ) ;
#288 = ADVANCED_FACE ( 'NONE', ( #413 ), #213, .T. ) ;
#289 = PLANE ( 'NONE',  #73 ) ;
#290 = VECTOR ( 'NONE', #307, 1000.000000000000000 ) ;
#291 = DIRECTION ( 'NONE',  ( -1.249639590966686871E-16, 1.000000000000000000, 0.000000000000000000 ) ) ;
#292 = CARTESIAN_POINT ( 'NONE',  ( -54.39999999999999858, -6.109487960236132274E-15, 0.000000000000000000 ) ) ;
#293 = EDGE_CURVE ( 'NONE', #33, #58, #53, .T. ) ;
#294 = ORIENTED_EDGE ( 'NONE', *, *, #154, .F. ) ;
#295 = DIRECTION ( 'NONE',  ( 1.000000000000000000, 1.249639590966686871E-16, -0.000000000000000000 ) ) ;
#296 = FACE_OUTER_BOUND ( 'NONE', #116, .T. ) ;
#297 = LINE ( 'NONE', #77, #328 ) ;
#298 = AXIS2_PLACEMENT_3D ( 'NONE', #260, #397, #198 ) ;
#299 = DIRECTION ( 'NONE',  ( 0.000000000000000000, 1.000000000000000000, 0.000000000000000000 ) ) ;
#300 = AXIS2_PLACEMENT_3D ( 'NONE', #403, #332, #176 ) ;
#301 = APPROVAL_DATE_TIME ( #48, #167 ) ;
#302 = CARTESIAN_POINT ( 'NONE',  ( -55.00000000000000000, -6.184466335694133659E-15, 0.000000000000000000 ) ) ;
#303 = SECURITY_CLASSIFICATION_LEVEL ( 'unclassified' ) ;
#304 = CARTESIAN_POINT ( 'NONE',  ( 0.000000000000000000, 0.000000000000000000, 0.000000000000000000 ) ) ;
#305 = AXIS2_PLACEMENT_3D ( 'NONE', #38, #286, #358 ) ;
#306 = EDGE_LOOP ( 'NONE', ( #90, #379, #151, #359 ) ) ;
#307 = DIRECTION ( 'NONE',  ( 1.000000000000000000, 1.249639590966686871E-16, -0.000000000000000000 ) ) ;
#308 = VERTEX_POINT ( 'NONE', #61 ) ;
#309 = MANIFOLD_SOLID_BREP ( 'Révolution1', #11 ) ;
#310 = MANIFOLD_SOLID_BREP ( 'Révolution2', #59 ) ;
#311 = APPLICATION_PROTOCOL_DEFINITION ( 'international standard', 'config_control_design', 1994, #161 ) ;
#312 = VERTEX_POINT ( 'NONE', #184 ) ;
#313 = LINE ( 'NONE', #169, #152 ) ;
#314 = MECHANICAL_CONTEXT ( 'NONE', #161, 'mechanical' ) ;
#315 = DIRECTION ( 'NONE',  ( 1.000000000000000000, 1.020538999289461879E-17, -0.000000000000000000 ) ) ;
#316 = CC_DESIGN_SECURITY_CLASSIFICATION ( #388, ( #283 ) ) ;
#317 = CARTESIAN_POINT ( 'NONE',  ( -6.000000000000000000, 1.849999999999998757, 0.000000000000000000 ) ) ;
#318 = EDGE_CURVE ( 'NONE', #180, #308, #313, .T. ) ;
#319 = VERTEX_POINT ( 'NONE', #158 ) ;
#320 = DIRECTION ( 'NONE',  ( 0.000000000000000000, 1.000000000000000000, 0.000000000000000000 ) ) ;
#321 = DIRECTION ( 'NONE',  ( 1.000000000000000000, 1.249639590966686871E-16, -0.000000000000000000 ) ) ;
#322 = CARTESIAN_POINT ( 'NONE',  ( -6.000000000000000000, -2.000000000000000000, 2.449293598294706414E-16 ) ) ;
#323 = DIRECTION ( 'NONE',  ( 0.000000000000000000, 1.000000000000000000, 0.000000000000000000 ) ) ;
#324 = CIRCLE ( 'NONE', #144, 2.400000000000004352 ) ;
#325 = LINE ( 'NONE', #9, #377 ) ;
#326 = CARTESIAN_POINT ( 'NONE',  ( -1.020538999289459568E-17, -1.041499849070733737E-34, 0.000000000000000000 ) ) ;
#327 =( NAMED_UNIT ( * ) PLANE_ANGLE_UNIT ( ) SI_UNIT ( $, .RADIAN. ) );
#328 = VECTOR ( 'NONE', #163, 1000.000000000000114 ) ;
#329 = AXIS2_PLACEMENT_3D ( 'NONE', #384, #225, #171 ) ;
#330 = DIRECTION ( 'NONE',  ( 0.000000000000000000, -1.000000000000000000, 0.000000000000000000 ) ) ;
#331 = ADVANCED_FACE ( 'NONE', ( #393 ), #402, .T. ) ;
#332 = DIRECTION ( 'NONE',  ( 1.000000000000000000, 1.249639590966686871E-16, -0.000000000000000000 ) ) ;
#333 = FACE_OUTER_BOUND ( 'NONE', #62, .T. ) ;
#334 = AXIS2_PLACEMENT_3D ( 'NONE', #188, #265, #18 ) ;
#335 = CC_DESIGN_PERSON_AND_ORGANIZATION_ASSIGNMENT ( #164, #15, ( #215 ) ) ;
#336 = AXIS2_PLACEMENT_3D ( 'NONE', #280, #30, #189 ) ;
#337 = ORIENTED_EDGE ( 'NONE', *, *, #42, .F. ) ;
#338 = ORIENTED_EDGE ( 'NONE', *, *, #31, .F. ) ;
#339 = AXIS2_PLACEMENT_3D ( 'NONE', #216, #4, #89 ) ;
#340 = UNCERTAINTY_MEASURE_WITH_UNIT (LENGTH_MEASURE( 1.000000000000000082E-05 ), #78, 'distance_accuracy_value', 'NONE');
#341 = ADVANCED_FACE ( 'NONE', ( #228 ), #70, .T. ) ;
#342 = LOCAL_TIME ( 13, 23, 44.00000000000000000, #237 ) ;
#343 = EDGE_LOOP ( 'NONE', ( #277, #71 ) ) ;
#344 = PRODUCT_RELATED_PRODUCT_CATEGORY ( 'detail', '', ( #137 ) ) ;
#345 = EDGE_LOOP ( 'NONE', ( #230, #37 ) ) ;
#346 = ORIENTED_EDGE ( 'NONE', *, *, #202, .F. ) ;
#347 = ADVANCED_FACE ( 'NONE', ( #357 ), #266, .T. ) ;
#348 = AXIS2_PLACEMENT_3D ( 'NONE', #24, #271, #368 ) ;
#349 = LOCAL_TIME ( 13, 23, 44.00000000000000000, #130 ) ;
#350 = EDGE_LOOP ( 'NONE', ( #372, #16, #113, #28 ) ) ;
#351 = DIRECTION ( 'NONE',  ( 1.000000000000000000, 1.249639590966686871E-16, -0.000000000000000000 ) ) ;
#352 = EDGE_CURVE ( 'NONE', #312, #155, #324, .T. ) ;
#353 = DESIGN_CONTEXT ( 'detailed design', #404, 'design' ) ;
#354 = CARTESIAN_POINT ( 'NONE',  ( -6.000000000000000000, -1.849999999999999201, 2.265596578422602607E-16 ) ) ;
#355 = APPLICATION_PROTOCOL_DEFINITION ( 'international standard', 'config_control_design', 1994, #404 ) ;
#356 = ORIENTED_EDGE ( 'NONE', *, *, #154, .T. ) ;
#357 = FACE_OUTER_BOUND ( 'NONE', #306, .T. ) ;
#358 = DIRECTION ( 'NONE',  ( 1.000000000000000000, 0.000000000000000000, 0.000000000000000000 ) ) ;
#359 = ORIENTED_EDGE ( 'NONE', *, *, #86, .F. ) ;
#360 = DIRECTION ( 'NONE',  ( 0.000000000000000000, 1.000000000000000000, 0.000000000000000000 ) ) ;
#361 = CARTESIAN_POINT ( 'NONE',  ( -1.020538999289459568E-17, -1.041499849070733737E-34, 0.000000000000000000 ) ) ;
#362 = FACE_OUTER_BOUND ( 'NONE', #350, .T. ) ;
#363 = APPROVAL_STATUS ( 'not_yet_approved' ) ;
#364 = EDGE_CURVE ( 'NONE', #408, #392, #114, .T. ) ;
#365 = CARTESIAN_POINT ( 'NONE',  ( -6.000000000000000000, -6.123233995736769734E-17, 0.000000000000000000 ) ) ;
#366 = CC_DESIGN_PERSON_AND_ORGANIZATION_ASSIGNMENT ( #284, #239, ( #283 ) ) ;
#367 = VECTOR ( 'NONE', #69, 1000.000000000000000 ) ;
#368 = DIRECTION ( 'NONE',  ( 0.000000000000000000, 1.000000000000000000, 0.000000000000000000 ) ) ;
#369 = CC_DESIGN_PERSON_AND_ORGANIZATION_ASSIGNMENT ( #263, #240, ( #283 ) ) ;
#370 = AXIS2_PLACEMENT_3D ( 'NONE', #120, #250, #97 ) ;
#371 = ORIENTED_EDGE ( 'NONE', *, *, #185, .T. ) ;
#372 = ORIENTED_EDGE ( 'NONE', *, *, #226, .F. ) ;
#373 = EDGE_CURVE ( 'NONE', #180, #88, #65, .T. ) ;
#374 = CC_DESIGN_PERSON_AND_ORGANIZATION_ASSIGNMENT ( #79, #82, ( #388 ) ) ;
#375 = ORIENTED_EDGE ( 'NONE', *, *, #235, .T. ) ;
#376 = CYLINDRICAL_SURFACE ( 'NONE', #336, 1.849999999999999201 ) ;
#377 = VECTOR ( 'NONE', #191, 1000.000000000000000 ) ;
#378 = AXIS2_PLACEMENT_3D ( 'NONE', #132, #351, #76 ) ;
#379 = ORIENTED_EDGE ( 'NONE', *, *, #226, .T. ) ;
#380 = COORDINATED_UNIVERSAL_TIME_OFFSET ( 1, 0, .AHEAD. ) ;
#381 = ORIENTED_EDGE ( 'NONE', *, *, #352, .T. ) ;
#382 = EDGE_CURVE ( 'NONE', #312, #408, #17, .T. ) ;
#383 = LINE ( 'NONE', #192, #174 ) ;
#384 = CARTESIAN_POINT ( 'NONE',  ( -54.39999999999999858, -6.109487960236132274E-15, 0.000000000000000000 ) ) ;
#385 = APPROVAL_STATUS ( 'not_yet_approved' ) ;
#386 = AXIS2_PLACEMENT_3D ( 'NONE', #259, #295, #320 ) ;
#387 = LINE ( 'NONE', #44, #395 ) ;
#388 = SECURITY_CLASSIFICATION ( '', '', #303 ) ;
#389 = PERSON_AND_ORGANIZATION ( #406, #121 ) ;
#390 = ORIENTED_EDGE ( 'NONE', *, *, #264, .T. ) ;
#391 = COORDINATED_UNIVERSAL_TIME_OFFSET ( 1, 0, .AHEAD. ) ;
#392 = VERTEX_POINT ( 'NONE', #399 ) ;
#393 = FACE_OUTER_BOUND ( 'NONE', #165, .T. ) ;
#394 = APPROVAL_ROLE ( '' ) ;
#395 = VECTOR ( 'NONE', #321, 1000.000000000000000 ) ;
#396 = AXIS2_PLACEMENT_3D ( 'NONE', #302, #23, #140 ) ;
#397 = DIRECTION ( 'NONE',  ( 1.000000000000000000, 1.249639590966686871E-16, -0.000000000000000000 ) ) ;
#398 = AXIS2_PLACEMENT_3D ( 'NONE', #166, #72, #109 ) ;
#399 = CARTESIAN_POINT ( 'NONE',  ( -54.39999999999999858, -3.000000000000011102, 3.673940397442065291E-16 ) ) ;
#400 = ADVANCED_FACE ( 'NONE', ( #256 ), #138, .T. ) ;
#401 = AXIS2_PLACEMENT_3D ( 'NONE', #365, #272, #50 ) ;
#402 = CONICAL_SURFACE ( 'NONE', #329, 3.000000000000004441, 0.7853981633974453924 ) ;
#403 = CARTESIAN_POINT ( 'NONE',  ( -54.39999999999999858, -6.109487960236132274E-15, 0.000000000000000000 ) ) ;
#404 = APPLICATION_CONTEXT ( 'configuration controlled 3d designs of mechanical parts and assemblies' ) ;
#405 = CC_DESIGN_APPROVAL ( #193, ( #283 ) ) ;
#406 = PERSON ( 'UNSPECIFIED', 'UNSPECIFIED', 'UNSPECIFIED', ('UNSPECIFIED'), ('UNSPECIFIED'), ('UNSPECIFIED') ) ;
#407 = CARTESIAN_POINT ( 'NONE',  ( -6.000000000000000000, 1.849999999999999201, 0.000000000000000000 ) ) ;
#408 = VERTEX_POINT ( 'NONE', #261 ) ;
#409 = DIRECTION ( 'NONE',  ( 1.000000000000000000, 1.020538999289461879E-17, -0.000000000000000000 ) ) ;
#410 = LOCAL_TIME ( 13, 23, 44.00000000000000000, #380 ) ;
#411 = ORIENTED_EDGE ( 'NONE', *, *, #202, .T. ) ;
#412 = EDGE_CURVE ( 'NONE', #155, #312, #81, .T. ) ;
#413 = FACE_OUTER_BOUND ( 'NONE', #343, .T. ) ;
ENDSEC;
END-ISO-10303-21;
