ISO-10303-21;
HEADER;
FILE_DESCRIPTION (( 'STEP AP203' ),
    '1' );
FILE_NAME ('358882358885.step',
    '2022-06-01T11:23:43',
    ( '' ),
    ( '' ),
    'SwSTEP 2.0',
    'SolidWorks 2019',
    '' );
FILE_SCHEMA (( 'CONFIG_CONTROL_DESIGN' ));
ENDSEC;

DATA;
#1 = DIRECTION ( 'NONE',  ( 0.000000000000000000, 0.000000000000000000, 1.000000000000000000 ) ) ;
#2 = ORIENTED_EDGE ( 'NONE', *, *, #234, .T. ) ;
#3 = DIRECTION ( 'NONE',  ( 1.000000000000000000, 1.224646799147353207E-16, -0.000000000000000000 ) ) ;
#4 = PERSON_AND_ORGANIZATION_ROLE ( 'design_owner' ) ;
#5 = EDGE_LOOP ( 'NONE', ( #248, #288, #25, #403 ) ) ;
#6 = CARTESIAN_POINT ( 'NONE',  ( -54.39999999999999858, 2.999999999999997780, 0.000000000000000000 ) ) ;
#7 = EDGE_LOOP ( 'NONE', ( #372, #261, #413, #246 ) ) ;
#8 = DIRECTION ( 'NONE',  ( 1.000000000000000000, 1.224646799147353207E-16, -0.000000000000000000 ) ) ;
#9 = CALENDAR_DATE ( 2022, 1, 6 ) ;
#10 = EDGE_CURVE ( 'NONE', #296, #160, #293, .T. ) ;
#11 = DIRECTION ( 'NONE',  ( 1.000000000000000000, 1.224646799147353207E-16, -0.000000000000000000 ) ) ;
#12 = EDGE_CURVE ( 'NONE', #219, #150, #169, .T. ) ;
#13 = DIRECTION ( 'NONE',  ( 0.000000000000000000, 1.000000000000000000, 0.000000000000000000 ) ) ;
#14 = CARTESIAN_POINT ( 'NONE',  ( -15.53826859021810058, 2.999999999999993339, 0.000000000000000000 ) ) ;
#15 = AXIS2_PLACEMENT_3D ( 'NONE', #114, #368, #202 ) ;
#16 = AXIS2_PLACEMENT_3D ( 'NONE', #27, #409, #125 ) ;
#17 = CIRCLE ( 'NONE', #263, 1.750000000000000000 ) ;
#18 = DIRECTION ( 'NONE',  ( 0.000000000000000000, 1.000000000000000000, 0.000000000000000000 ) ) ;
#19 = LINE ( 'NONE', #149, #165 ) ;
#20 = ORIENTED_EDGE ( 'NONE', *, *, #42, .T. ) ;
#21 = AXIS2_PLACEMENT_3D ( 'NONE', #141, #116, #267 ) ;
#22 = EDGE_CURVE ( 'NONE', #400, #26, #376, .T. ) ;
#23 = ORIENTED_EDGE ( 'NONE', *, *, #113, .F. ) ;
#24 = ADVANCED_FACE ( 'NONE', ( #95 ), #74, .T. ) ;
#25 = ORIENTED_EDGE ( 'NONE', *, *, #212, .T. ) ;
#26 = VERTEX_POINT ( 'NONE', #351 ) ;
#27 = CARTESIAN_POINT ( 'NONE',  ( -10.50000000000000000, -7.347880794884121708E-16, 0.000000000000000000 ) ) ;
#28 = PERSON_AND_ORGANIZATION ( #336, #300 ) ;
#29 = CYLINDRICAL_SURFACE ( 'NONE', #238, 1.649999999999999467 ) ;
#30 = DATE_TIME_ROLE ( 'classification_date' ) ;
#31 = DIRECTION ( 'NONE',  ( 2.226630543904280996E-17, -1.000000000000000000, 0.000000000000000000 ) ) ;
#32 = COORDINATED_UNIVERSAL_TIME_OFFSET ( 1, 0, .AHEAD. ) ;
#33 = LOCAL_TIME ( 13, 23, 43.00000000000000000, #157 ) ;
#34 = DIRECTION ( 'NONE',  ( 0.000000000000000000, 1.000000000000000000, 0.000000000000000000 ) ) ;
#35 = MECHANICAL_CONTEXT ( 'NONE', #66, 'mechanical' ) ;
#36 = ORIENTED_EDGE ( 'NONE', *, *, #113, .T. ) ;
#37 = AXIS2_PLACEMENT_3D ( 'NONE', #163, #384, #100 ) ;
#38 = EDGE_CURVE ( 'NONE', #314, #408, #181, .T. ) ;
#39 = CARTESIAN_POINT ( 'NONE',  ( 8.349864539641083393E-18, 1.859206342142809516E-34, 0.000000000000000000 ) ) ;
#40 = CARTESIAN_POINT ( 'NONE',  ( -54.39999999999999858, -6.110987527745291939E-15, 0.000000000000000000 ) ) ;
#41 = ORIENTED_EDGE ( 'NONE', *, *, #85, .T. ) ;
#42 = EDGE_CURVE ( 'NONE', #226, #399, #166, .T. ) ;
#43 = MANIFOLD_SOLID_BREP ( 'Révolution1', #317 ) ;
#44 = EDGE_CURVE ( 'NONE', #160, #296, #17, .T. ) ;
#45 = DIRECTION ( 'NONE',  ( 1.000000000000000000, 1.224646799147353207E-16, -0.000000000000000000 ) ) ;
#46 = DIRECTION ( 'NONE',  ( 1.000000000000000000, 2.226630543904280996E-17, -0.000000000000000000 ) ) ;
#47 = DIRECTION ( 'NONE',  ( 1.000000000000000000, 1.224646799147353207E-16, -0.000000000000000000 ) ) ;
#48 = DIRECTION ( 'NONE',  ( -0.9659258262890700886, -0.2588190451025144667, 0.000000000000000000 ) ) ;
#49 = VECTOR ( 'NONE', #217, 1000.000000000000000 ) ;
#50 = DIRECTION ( 'NONE',  ( 0.000000000000000000, 1.000000000000000000, 0.000000000000000000 ) ) ;
#51 = DIRECTION ( 'NONE',  ( 1.000000000000000000, 2.226630543904280996E-17, -0.000000000000000000 ) ) ;
#52 = EDGE_CURVE ( 'NONE', #26, #400, #82, .T. ) ;
#53 = EDGE_LOOP ( 'NONE', ( #299, #41, #279, #65 ) ) ;
#54 = DIRECTION ( 'NONE',  ( 1.000000000000000000, 1.224646799147353207E-16, -0.000000000000000000 ) ) ;
#55 = ORIENTED_EDGE ( 'NONE', *, *, #84, .T. ) ;
#56 = CARTESIAN_POINT ( 'NONE',  ( -54.39999999999999858, -6.110987527745291939E-15, 0.000000000000000000 ) ) ;
#57 = CARTESIAN_POINT ( 'NONE',  ( -5.500000000000000000, -2.999999999999999556, 3.673940397442059375E-16 ) ) ;
#58 = DIRECTION ( 'NONE',  ( 1.000000000000000000, 1.224646799147353207E-16, -0.000000000000000000 ) ) ;
#59 = CONICAL_SURFACE ( 'NONE', #16, 1.649999999999999467, 0.2617993877991428020 ) ;
#60 = FACE_OUTER_BOUND ( 'NONE', #102, .T. ) ;
#61 = CARTESIAN_POINT ( 'NONE',  ( -5.500000000000000000, -1.224646799147354686E-16, 0.000000000000000000 ) ) ;
#62 = CALENDAR_DATE ( 2022, 1, 6 ) ;
#63 = EDGE_CURVE ( 'NONE', #150, #355, #268, .T. ) ;
#64 = CC_DESIGN_PERSON_AND_ORGANIZATION_ASSIGNMENT ( #218, #155, ( #220 ) ) ;
#65 = ORIENTED_EDGE ( 'NONE', *, *, #84, .F. ) ;
#66 = APPLICATION_CONTEXT ( 'configuration controlled 3d designs of mechanical parts and assemblies' ) ;
#67 = VECTOR ( 'NONE', #51, 1000.000000000000000 ) ;
#68 = APPROVAL_PERSON_ORGANIZATION ( #407, #291, #197 ) ;
#69 = EDGE_LOOP ( 'NONE', ( #280, #127 ) ) ;
#70 = VECTOR ( 'NONE', #391, 1000.000000000000114 ) ;
#71 = APPROVAL_STATUS ( 'not_yet_approved' ) ;
#72 = ORIENTED_EDGE ( 'NONE', *, *, #52, .T. ) ;
#73 = CARTESIAN_POINT ( 'NONE',  ( -55.00000000000000000, -6.184466335694133659E-15, 0.000000000000000000 ) ) ;
#74 = PLANE ( 'NONE',  #94 ) ;
#75 = LOCAL_TIME ( 13, 23, 43.00000000000000000, #221 ) ;
#76 = FACE_OUTER_BOUND ( 'NONE', #69, .T. ) ;
#77 = PLANE ( 'NONE',  #151 ) ;
#78 = CIRCLE ( 'NONE', #139, 3.000000000000004441 ) ;
#79 = CARTESIAN_POINT ( 'NONE',  ( 8.349864539641083393E-18, 1.859206342142809516E-34, 0.000000000000000000 ) ) ;
#80 = LINE ( 'NONE', #339, #375 ) ;
#81 = DIRECTION ( 'NONE',  ( 0.7071067811865496822, -0.7071067811865453523, 8.659560562354908206E-17 ) ) ;
#82 = CIRCLE ( 'NONE', #316, 1.649999999999999245 ) ;
#83 = DIRECTION ( 'NONE',  ( 1.000000000000000000, 1.224646799147353207E-16, -0.000000000000000000 ) ) ;
#84 = EDGE_CURVE ( 'NONE', #219, #400, #210, .T. ) ;
#85 = EDGE_CURVE ( 'NONE', #225, #26, #396, .T. ) ;
#86 = ORIENTED_EDGE ( 'NONE', *, *, #205, .F. ) ;
#87 = APPLICATION_CONTEXT ( 'configuration controlled 3d designs of mechanical parts and assemblies' ) ;
#88 = CIRCLE ( 'NONE', #206, 2.999999999999994671 ) ;
#89 = CIRCLE ( 'NONE', #334, 1.649999999999999689 ) ;
#90 = ORIENTED_EDGE ( 'NONE', *, *, #12, .F. ) ;
#91 = DIRECTION ( 'NONE',  ( 1.000000000000000000, 2.226630543904280996E-17, -0.000000000000000000 ) ) ;
#92 = DATE_TIME_ROLE ( 'creation_date' ) ;
#93 = VECTOR ( 'NONE', #11, 1000.000000000000000 ) ;
#94 = AXIS2_PLACEMENT_3D ( 'NONE', #223, #319, #31 ) ;
#95 = FACE_OUTER_BOUND ( 'NONE', #283, .T. ) ;
#96 = DIRECTION ( 'NONE',  ( 0.000000000000000000, 1.000000000000000000, 0.000000000000000000 ) ) ;
#97 = EDGE_CURVE ( 'NONE', #355, #150, #88, .T. ) ;
#98 = COORDINATED_UNIVERSAL_TIME_OFFSET ( 1, 0, .AHEAD. ) ;
#99 = CC_DESIGN_PERSON_AND_ORGANIZATION_ASSIGNMENT ( #389, #386, ( #374 ) ) ;
#100 = DIRECTION ( 'NONE',  ( 0.000000000000000000, 1.000000000000000000, 0.000000000000000000 ) ) ;
#101 = CC_DESIGN_APPROVAL ( #402, ( #220 ) ) ;
#102 = EDGE_LOOP ( 'NONE', ( #297, #195, #55, #387 ) ) ;
#103 = DIRECTION ( 'NONE',  ( 1.224646799147353207E-16, -1.000000000000000000, 0.000000000000000000 ) ) ;
#104 =( NAMED_UNIT ( * ) PLANE_ANGLE_UNIT ( ) SI_UNIT ( $, .RADIAN. ) );
#105 = ORIENTED_EDGE ( 'NONE', *, *, #22, .T. ) ;
#106 = CARTESIAN_POINT ( 'NONE',  ( -55.00000000000000000, -2.400000000000010569, 3.306546357697859650E-16 ) ) ;
#107 = ORIENTED_EDGE ( 'NONE', *, *, #205, .T. ) ;
#108 = CARTESIAN_POINT ( 'NONE',  ( -15.53826859021810058, -2.999999999999996003, 3.673940397442056417E-16 ) ) ;
#109 = DIRECTION ( 'NONE',  ( 1.000000000000000000, 1.224646799147353207E-16, -0.000000000000000000 ) ) ;
#110 = DIRECTION ( 'NONE',  ( 1.000000000000000000, 1.224646799147353207E-16, -0.000000000000000000 ) ) ;
#111 = AXIS2_PLACEMENT_3D ( 'NONE', #61, #323, #34 ) ;
#112 = AXIS2_PLACEMENT_3D ( 'NONE', #56, #54, #285 ) ;
#113 = EDGE_CURVE ( 'NONE', #329, #358, #78, .T. ) ;
#114 = CARTESIAN_POINT ( 'NONE',  ( -54.39999999999999858, -6.110987527745291939E-15, 0.000000000000000000 ) ) ;
#115 = DIRECTION ( 'NONE',  ( 1.000000000000000000, 2.226630543904280996E-17, -0.000000000000000000 ) ) ;
#116 = DIRECTION ( 'NONE',  ( 1.000000000000000000, 2.226630543904280996E-17, -0.000000000000000000 ) ) ;
#117 = ADVANCED_FACE ( 'NONE', ( #361 ), #397, .T. ) ;
#118 = CONICAL_SURFACE ( 'NONE', #243, 1.649999999999999467, 0.2617993877991428020 ) ;
#119 = FACE_OUTER_BOUND ( 'NONE', #123, .T. ) ;
#120 = ORIENTED_EDGE ( 'NONE', *, *, #177, .T. ) ;
#121 = EDGE_LOOP ( 'NONE', ( #105, #72 ) ) ;
#122 = CC_DESIGN_APPROVAL ( #291, ( #374 ) ) ;
#123 = EDGE_LOOP ( 'NONE', ( #353, #140, #171, #326 ) ) ;
#124 = PERSON_AND_ORGANIZATION ( #336, #300 ) ;
#125 = DIRECTION ( 'NONE',  ( 0.000000000000000000, -1.000000000000000000, 0.000000000000000000 ) ) ;
#126 =( NAMED_UNIT ( * ) SI_UNIT ( $, .STERADIAN. ) SOLID_ANGLE_UNIT ( ) );
#127 = ORIENTED_EDGE ( 'NONE', *, *, #213, .F. ) ;
#128 = ADVANCED_FACE ( 'NONE', ( #340 ), #77, .T. ) ;
#129 = DIRECTION ( 'NONE',  ( 1.000000000000000000, 1.224646799147353207E-16, -0.000000000000000000 ) ) ;
#130 = APPROVAL_STATUS ( 'not_yet_approved' ) ;
#131 = VECTOR ( 'NONE', #81, 1000.000000000000000 ) ;
#132 = AXIS2_PLACEMENT_3D ( 'NONE', #73, #388, #103 ) ;
#133 = ORIENTED_EDGE ( 'NONE', *, *, #38, .F. ) ;
#134 = SECURITY_CLASSIFICATION_LEVEL ( 'unclassified' ) ;
#135 = ORIENTED_EDGE ( 'NONE', *, *, #144, .F. ) ;
#136 = DIRECTION ( 'NONE',  ( 0.000000000000000000, 1.000000000000000000, 0.000000000000000000 ) ) ;
#137 = ORIENTED_EDGE ( 'NONE', *, *, #97, .F. ) ;
#138 = CARTESIAN_POINT ( 'NONE',  ( -10.50000000000000000, -7.347880794884121708E-16, 0.000000000000000000 ) ) ;
#139 = AXIS2_PLACEMENT_3D ( 'NONE', #335, #45, #142 ) ;
#140 = ORIENTED_EDGE ( 'NONE', *, *, #257, .T. ) ;
#141 = CARTESIAN_POINT ( 'NONE',  ( 0.000000000000000000, 0.000000000000000000, 0.000000000000000000 ) ) ;
#142 = DIRECTION ( 'NONE',  ( 0.000000000000000000, 1.000000000000000000, 0.000000000000000000 ) ) ;
#143 = ADVANCED_FACE ( 'NONE', ( #207 ), #303, .T. ) ;
#144 = EDGE_CURVE ( 'NONE', #408, #314, #253, .T. ) ;
#145 = UNCERTAINTY_MEASURE_WITH_UNIT (LENGTH_MEASURE( 1.000000000000000082E-05 ), #192, 'distance_accuracy_value', 'NONE');
#146 = DIRECTION ( 'NONE',  ( 0.000000000000000000, 1.000000000000000000, 0.000000000000000000 ) ) ;
#147 = AXIS2_PLACEMENT_3D ( 'NONE', #262, #170, #96 ) ;
#148 = CARTESIAN_POINT ( 'NONE',  ( -5.500000000000000000, -1.649999999999999689, 2.020667218593132262E-16 ) ) ;
#149 = CARTESIAN_POINT ( 'NONE',  ( -54.39999999999999858, 2.999999999999998224, 0.000000000000000000 ) ) ;
#150 = VERTEX_POINT ( 'NONE', #14 ) ;
#151 = AXIS2_PLACEMENT_3D ( 'NONE', #180, #115, #241 ) ;
#152 = EDGE_LOOP ( 'NONE', ( #20, #167, #193, #230 ) ) ;
#153 = LINE ( 'NONE', #281, #284 ) ;
#154 = PRODUCT_DEFINITION_FORMATION_WITH_SPECIFIED_SOURCE ( 'ANY', '', #385, .NOT_KNOWN. ) ;
#155 = PERSON_AND_ORGANIZATION_ROLE ( 'classification_officer' ) ;
#156 = DIRECTION ( 'NONE',  ( 1.000000000000000000, 2.226630543904280996E-17, -0.000000000000000000 ) ) ;
#157 = COORDINATED_UNIVERSAL_TIME_OFFSET ( 1, 0, .AHEAD. ) ;
#158 = EDGE_CURVE ( 'NONE', #399, #329, #209, .T. ) ;
#159 = ADVANCED_FACE ( 'NONE', ( #365 ), #182, .T. ) ;
#160 = VERTEX_POINT ( 'NONE', #239 ) ;
#161 = FACE_OUTER_BOUND ( 'NONE', #411, .T. ) ;
#162 = CALENDAR_DATE ( 2022, 1, 6 ) ;
#163 = CARTESIAN_POINT ( 'NONE',  ( -55.00000000000000000, -6.184466335694133659E-15, 0.000000000000000000 ) ) ;
#164 = DATE_AND_TIME ( #347, #33 ) ;
#165 = VECTOR ( 'NONE', #274, 1000.000000000000114 ) ;
#166 = CIRCLE ( 'NONE', #37, 2.400000000000004352 ) ;
#167 = ORIENTED_EDGE ( 'NONE', *, *, #158, .T. ) ;
#168 = CARTESIAN_POINT ( 'NONE',  ( 0.000000000000000000, 0.000000000000000000, 0.000000000000000000 ) ) ;
#169 = LINE ( 'NONE', #255, #70 ) ;
#170 = DIRECTION ( 'NONE',  ( 1.000000000000000000, 1.224646799147353207E-16, -0.000000000000000000 ) ) ;
#171 = ORIENTED_EDGE ( 'NONE', *, *, #10, .F. ) ;
#172 = MANIFOLD_SOLID_BREP ( 'Révolution2', #269 ) ;
#173 = LOCAL_TIME ( 13, 23, 43.00000000000000000, #98 ) ;
#174 = DIRECTION ( 'NONE',  ( 0.000000000000000000, 1.000000000000000000, 0.000000000000000000 ) ) ;
#175 = ADVANCED_FACE ( 'NONE', ( #332 ), #240, .T. ) ;
#176 = CARTESIAN_POINT ( 'NONE',  ( -5.500000000000000000, -1.224646799147354440E-16, 0.000000000000000000 ) ) ;
#177 = EDGE_CURVE ( 'NONE', #226, #358, #19, .T. ) ;
#178 = CARTESIAN_POINT ( 'NONE',  ( -15.53826859021810058, -1.351798029713936707E-15, 0.000000000000000000 ) ) ;
#179 = CARTESIAN_POINT ( 'NONE',  ( -55.00000000000000000, 2.399999999999998579, 0.000000000000000000 ) ) ;
#180 = CARTESIAN_POINT ( 'NONE',  ( -3.479110224850437573E-17, 1.750000000000000000, 0.000000000000000000 ) ) ;
#181 = CIRCLE ( 'NONE', #111, 1.750000000000000444 ) ;
#182 = CYLINDRICAL_SURFACE ( 'NONE', #185, 2.999999999999999556 ) ;
#183 = CARTESIAN_POINT ( 'NONE',  ( -55.00000000000000000, -6.184466335694133659E-15, 0.000000000000000000 ) ) ;
#184 = ORIENTED_EDGE ( 'NONE', *, *, #308, .F. ) ;
#185 = AXIS2_PLACEMENT_3D ( 'NONE', #176, #395, #146 ) ;
#186 = CIRCLE ( 'NONE', #112, 3.000000000000004441 ) ;
#187 = DIRECTION ( 'NONE',  ( 0.000000000000000000, 1.000000000000000000, 0.000000000000000000 ) ) ;
#188 = AXIS2_PLACEMENT_3D ( 'NONE', #412, #129, #187 ) ;
#189 = PERSON_AND_ORGANIZATION ( #336, #300 ) ;
#190 = ORIENTED_EDGE ( 'NONE', *, *, #213, .T. ) ;
#191 = DIRECTION ( 'NONE',  ( -2.226630543904280996E-17, 1.000000000000000000, 0.000000000000000000 ) ) ;
#192 =( LENGTH_UNIT ( ) NAMED_UNIT ( * ) SI_UNIT ( .MILLI., .METRE. ) );
#193 = ORIENTED_EDGE ( 'NONE', *, *, #244, .F. ) ;
#194 = APPROVAL_DATE_TIME ( #352, #214 ) ;
#195 = ORIENTED_EDGE ( 'NONE', *, *, #378, .T. ) ;
#196 = VECTOR ( 'NONE', #47, 1000.000000000000000 ) ;
#197 = APPROVAL_ROLE ( '' ) ;
#198 = CONICAL_SURFACE ( 'NONE', #15, 3.000000000000004441, 0.7853981633974453924 ) ;
#199 = DIRECTION ( 'NONE',  ( -2.226630543904280996E-17, 1.000000000000000000, 0.000000000000000000 ) ) ;
#200 = ORIENTED_EDGE ( 'NONE', *, *, #362, .F. ) ;
#201 = DIRECTION ( 'NONE',  ( 0.000000000000000000, -1.000000000000000000, 0.000000000000000000 ) ) ;
#202 = DIRECTION ( 'NONE',  ( 0.000000000000000000, 1.000000000000000000, 0.000000000000000000 ) ) ;
#203 = DIRECTION ( 'NONE',  ( -1.000000000000000000, -1.224646799147353207E-16, 0.000000000000000000 ) ) ;
#204 = ADVANCED_FACE ( 'NONE', ( #242 ), #198, .T. ) ;
#205 = EDGE_CURVE ( 'NONE', #225, #355, #80, .T. ) ;
#206 = AXIS2_PLACEMENT_3D ( 'NONE', #178, #306, #13 ) ;
#207 = FACE_OUTER_BOUND ( 'NONE', #53, .T. ) ;
#208 = DIRECTION ( 'NONE',  ( 1.000000000000000000, 2.226630543904280996E-17, -0.000000000000000000 ) ) ;
#209 = LINE ( 'NONE', #236, #131 ) ;
#210 = LINE ( 'NONE', #366, #196 ) ;
#211 = DIRECTION ( 'NONE',  ( 0.000000000000000000, 1.000000000000000000, 0.000000000000000000 ) ) ;
#212 = EDGE_CURVE ( 'NONE', #314, #296, #341, .T. ) ;
#213 = EDGE_CURVE ( 'NONE', #399, #226, #282, .T. ) ;
#214 = APPROVAL ( #71, 'UNSPECIFIED' ) ;
#215 = ORIENTED_EDGE ( 'NONE', *, *, #97, .T. ) ;
#216 = AXIS2_PLACEMENT_3D ( 'NONE', #168, #1, #290 ) ;
#217 = DIRECTION ( 'NONE',  ( 1.000000000000000000, 1.224646799147353207E-16, -0.000000000000000000 ) ) ;
#218 = PERSON_AND_ORGANIZATION ( #336, #300 ) ;
#219 = VERTEX_POINT ( 'NONE', #307 ) ;
#220 = SECURITY_CLASSIFICATION ( '', '', #134 ) ;
#221 = COORDINATED_UNIVERSAL_TIME_OFFSET ( 1, 0, .AHEAD. ) ;
#222 = AXIS2_PLACEMENT_3D ( 'NONE', #39, #264, #199 ) ;
#223 = CARTESIAN_POINT ( 'NONE',  ( -5.500000000000000000, -1.224646799147354440E-16, 0.000000000000000000 ) ) ;
#224 = PERSON_AND_ORGANIZATION ( #336, #300 ) ;
#225 = VERTEX_POINT ( 'NONE', #273 ) ;
#226 = VERTEX_POINT ( 'NONE', #179 ) ;
#227 = FACE_OUTER_BOUND ( 'NONE', #406, .T. ) ;
#228 = VECTOR ( 'NONE', #249, 1000.000000000000000 ) ;
#229 = APPLICATION_PROTOCOL_DEFINITION ( 'international standard', 'config_control_design', 1994, #66 ) ;
#230 = ORIENTED_EDGE ( 'NONE', *, *, #177, .F. ) ;
#231 = DIRECTION ( 'NONE',  ( 1.000000000000000000, 1.224646799147353207E-16, -0.000000000000000000 ) ) ;
#232 = ADVANCED_FACE ( 'NONE', ( #119 ), #247, .T. ) ;
#233 = CC_DESIGN_PERSON_AND_ORGANIZATION_ASSIGNMENT ( #189, #318, ( #154 ) ) ;
#234 = EDGE_CURVE ( 'NONE', #358, #150, #342, .T. ) ;
#235 = SHAPE_DEFINITION_REPRESENTATION ( #325, #369 ) ;
#236 = CARTESIAN_POINT ( 'NONE',  ( -54.39999999999999858, -3.000000000000010658, 3.673940397442064798E-16 ) ) ;
#237 = AXIS2_PLACEMENT_3D ( 'NONE', #394, #110, #271 ) ;
#238 = AXIS2_PLACEMENT_3D ( 'NONE', #345, #58, #312 ) ;
#239 = CARTESIAN_POINT ( 'NONE',  ( 4.731589905796599388E-17, -1.750000000000000000, 2.143131898507868297E-16 ) ) ;
#240 = PLANE ( 'NONE',  #237 ) ;
#241 = DIRECTION ( 'NONE',  ( -2.226630543904280996E-17, 1.000000000000000000, 0.000000000000000000 ) ) ;
#242 = FACE_OUTER_BOUND ( 'NONE', #152, .T. ) ;
#243 = AXIS2_PLACEMENT_3D ( 'NONE', #138, #203, #201 ) ;
#244 = EDGE_CURVE ( 'NONE', #358, #329, #186, .T. ) ;
#245 = ADVANCED_FACE ( 'NONE', ( #60 ), #29, .T. ) ;
#246 = ORIENTED_EDGE ( 'NONE', *, *, #234, .F. ) ;
#247 = CYLINDRICAL_SURFACE ( 'NONE', #328, 1.750000000000000222 ) ;
#248 = ORIENTED_EDGE ( 'NONE', *, *, #257, .F. ) ;
#249 = DIRECTION ( 'NONE',  ( 1.000000000000000000, 1.224646799147353207E-16, -0.000000000000000000 ) ) ;
#250 = ORIENTED_EDGE ( 'NONE', *, *, #10, .T. ) ;
#251 = APPROVAL_STATUS ( 'not_yet_approved' ) ;
#252 = ORIENTED_EDGE ( 'NONE', *, *, #378, .F. ) ;
#253 = CIRCLE ( 'NONE', #327, 1.750000000000000444 ) ;
#254 = APPROVAL_ROLE ( '' ) ;
#255 = CARTESIAN_POINT ( 'NONE',  ( -10.50000000000000000, 1.649999999999998801, 2.020667218593132262E-16 ) ) ;
#256 = CARTESIAN_POINT ( 'NONE',  ( -5.500000000000000000, -1.750000000000000666, 2.143131898507868790E-16 ) ) ;
#257 = EDGE_CURVE ( 'NONE', #408, #160, #153, .T. ) ;
#258 = EDGE_LOOP ( 'NONE', ( #343, #190, #120, #23 ) ) ;
#259 = CARTESIAN_POINT ( 'NONE',  ( -10.50000000000000000, -7.347880794884121708E-16, 0.000000000000000000 ) ) ;
#260 = APPROVAL_DATE_TIME ( #357, #291 ) ;
#261 = ORIENTED_EDGE ( 'NONE', *, *, #308, .T. ) ;
#262 = CARTESIAN_POINT ( 'NONE',  ( -10.50000000000000000, -7.347880794884121708E-16, 0.000000000000000000 ) ) ;
#263 = AXIS2_PLACEMENT_3D ( 'NONE', #79, #208, #337 ) ;
#264 = DIRECTION ( 'NONE',  ( 1.000000000000000000, 2.226630543904280996E-17, -0.000000000000000000 ) ) ;
#265 = APPROVAL_DATE_TIME ( #360, #402 ) ;
#266 = DIRECTION ( 'NONE',  ( 0.000000000000000000, 1.000000000000000000, 0.000000000000000000 ) ) ;
#267 = DIRECTION ( 'NONE',  ( -2.226630543904280996E-17, 1.000000000000000000, 0.000000000000000000 ) ) ;
#268 = CIRCLE ( 'NONE', #275, 2.999999999999994671 ) ;
#269 = CLOSED_SHELL ( 'NONE', ( #232, #128, #24, #117 ) ) ;
#270 =( GEOMETRIC_REPRESENTATION_CONTEXT ( 3 ) GLOBAL_UNCERTAINTY_ASSIGNED_CONTEXT ( ( #145 ) ) GLOBAL_UNIT_ASSIGNED_CONTEXT ( ( #192, #104, #126 ) ) REPRESENTATION_CONTEXT ( 'NONE', 'WORKASPACE' ) );
#271 = DIRECTION ( 'NONE',  ( -1.224646799147353207E-16, 1.000000000000000000, 0.000000000000000000 ) ) ;
#272 = CARTESIAN_POINT ( 'NONE',  ( -15.53826859021810058, -1.351798029713936707E-15, 0.000000000000000000 ) ) ;
#273 = CARTESIAN_POINT ( 'NONE',  ( -10.50000000000000000, -1.650000000000000355, 0.000000000000000000 ) ) ;
#274 = DIRECTION ( 'NONE',  ( 0.7071067811865493491, 0.7071067811865455743, 0.000000000000000000 ) ) ;
#275 = AXIS2_PLACEMENT_3D ( 'NONE', #272, #109, #18 ) ;
#276 = EDGE_LOOP ( 'NONE', ( #250, #286 ) ) ;
#277 = AXIS2_PLACEMENT_3D ( 'NONE', #382, #231, #359 ) ;
#278 = CC_DESIGN_PERSON_AND_ORGANIZATION_ASSIGNMENT ( #28, #324, ( #154 ) ) ;
#279 = ORIENTED_EDGE ( 'NONE', *, *, #22, .F. ) ;
#280 = ORIENTED_EDGE ( 'NONE', *, *, #42, .F. ) ;
#281 = CARTESIAN_POINT ( 'NONE',  ( 3.896603451832492128E-17, -1.750000000000000222, 2.143131898507868544E-16 ) ) ;
#282 = CIRCLE ( 'NONE', #356, 2.400000000000004352 ) ;
#283 = EDGE_LOOP ( 'NONE', ( #133, #135 ) ) ;
#284 = VECTOR ( 'NONE', #156, 1000.000000000000000 ) ;
#285 = DIRECTION ( 'NONE',  ( 0.000000000000000000, 1.000000000000000000, 0.000000000000000000 ) ) ;
#286 = ORIENTED_EDGE ( 'NONE', *, *, #44, .T. ) ;
#287 = CARTESIAN_POINT ( 'NONE',  ( -5.500000000000000000, 1.750000000000000222, 0.000000000000000000 ) ) ;
#288 = ORIENTED_EDGE ( 'NONE', *, *, #144, .T. ) ;
#289 = CYLINDRICAL_SURFACE ( 'NONE', #188, 2.999999999999999556 ) ;
#290 = DIRECTION ( 'NONE',  ( 1.000000000000000000, 0.000000000000000000, 0.000000000000000000 ) ) ;
#291 = APPROVAL ( #130, 'UNSPECIFIED' ) ;
#292 = CC_DESIGN_DATE_AND_TIME_ASSIGNMENT ( #377, #92, ( #374 ) ) ;
#293 = CIRCLE ( 'NONE', #222, 1.750000000000000000 ) ;
#294 = CIRCLE ( 'NONE', #147, 1.649999999999999689 ) ;
#295 = APPLICATION_PROTOCOL_DEFINITION ( 'international standard', 'config_control_design', 1994, #87 ) ;
#296 = VERTEX_POINT ( 'NONE', #404 ) ;
#297 = ORIENTED_EDGE ( 'NONE', *, *, #85, .F. ) ;
#298 = PLANE ( 'NONE',  #132 ) ;
#299 = ORIENTED_EDGE ( 'NONE', *, *, #362, .T. ) ;
#300 = ORGANIZATION ( 'UNSPECIFIED', 'UNSPECIFIED', '' ) ;
#301 = DIRECTION ( 'NONE',  ( 1.000000000000000000, 1.224646799147353207E-16, -0.000000000000000000 ) ) ;
#302 = CARTESIAN_POINT ( 'NONE',  ( -5.500000000000000000, -1.224646799147354193E-16, 0.000000000000000000 ) ) ;
#303 = CYLINDRICAL_SURFACE ( 'NONE', #310, 1.649999999999999467 ) ;
#304 = LOCAL_TIME ( 13, 23, 43.00000000000000000, #383 ) ;
#305 = CARTESIAN_POINT ( 'NONE',  ( -5.500000000000000000, -1.224646799147354686E-16, 0.000000000000000000 ) ) ;
#306 = DIRECTION ( 'NONE',  ( 1.000000000000000000, 1.224646799147353207E-16, -0.000000000000000000 ) ) ;
#307 = CARTESIAN_POINT ( 'NONE',  ( -10.50000000000000000, 1.649999999999999023, 2.847303808017592983E-16 ) ) ;
#308 = EDGE_CURVE ( 'NONE', #329, #355, #380, .T. ) ;
#309 = CARTESIAN_POINT ( 'NONE',  ( -3.896603451832492128E-17, 1.750000000000000222, 0.000000000000000000 ) ) ;
#310 = AXIS2_PLACEMENT_3D ( 'NONE', #367, #392, #266 ) ;
#311 = AXIS2_PLACEMENT_3D ( 'NONE', #40, #3, #136 ) ;
#312 = DIRECTION ( 'NONE',  ( 0.000000000000000000, 1.000000000000000000, 0.000000000000000000 ) ) ;
#313 = APPROVAL_PERSON_ORGANIZATION ( #410, #402, #381 ) ;
#314 = VERTEX_POINT ( 'NONE', #287 ) ;
#315 = FACE_OUTER_BOUND ( 'NONE', #330, .T. ) ;
#316 = AXIS2_PLACEMENT_3D ( 'NONE', #302, #301, #50 ) ;
#317 = CLOSED_SHELL ( 'NONE', ( #143, #393, #159, #204, #175, #379, #350, #338, #322, #245 ) ) ;
#318 = PERSON_AND_ORGANIZATION_ROLE ( 'design_supplier' ) ;
#319 = DIRECTION ( 'NONE',  ( -1.000000000000000000, -2.226630543904280996E-17, 0.000000000000000000 ) ) ;
#320 = CARTESIAN_POINT ( 'NONE',  ( -54.39999999999999858, -3.000000000000011102, 3.673940397442065291E-16 ) ) ;
#321 = CALENDAR_DATE ( 2022, 1, 6 ) ;
#322 = ADVANCED_FACE ( 'NONE', ( #315 ), #59, .T. ) ;
#323 = DIRECTION ( 'NONE',  ( 1.000000000000000000, 2.226630543904280996E-17, -0.000000000000000000 ) ) ;
#324 = PERSON_AND_ORGANIZATION_ROLE ( 'creator' ) ;
#325 = PRODUCT_DEFINITION_SHAPE ( 'NONE', 'NONE',  #374 ) ;
#326 = ORIENTED_EDGE ( 'NONE', *, *, #212, .F. ) ;
#327 = AXIS2_PLACEMENT_3D ( 'NONE', #305, #46, #174 ) ;
#328 = AXIS2_PLACEMENT_3D ( 'NONE', #373, #91, #191 ) ;
#329 = VERTEX_POINT ( 'NONE', #320 ) ;
#330 = EDGE_LOOP ( 'NONE', ( #90, #252, #107, #215 ) ) ;
#331 = CARTESIAN_POINT ( 'NONE',  ( -5.500000000000000000, 1.649999999999999023, 0.000000000000000000 ) ) ;
#332 = FACE_OUTER_BOUND ( 'NONE', #121, .T. ) ;
#333 = DIRECTION ( 'NONE',  ( 0.000000000000000000, 1.000000000000000000, 0.000000000000000000 ) ) ;
#334 = AXIS2_PLACEMENT_3D ( 'NONE', #259, #8, #333 ) ;
#335 = CARTESIAN_POINT ( 'NONE',  ( -54.39999999999999858, -6.110987527745291939E-15, 0.000000000000000000 ) ) ;
#336 = PERSON ( 'UNSPECIFIED', 'UNSPECIFIED', 'UNSPECIFIED', ('UNSPECIFIED'), ('UNSPECIFIED'), ('UNSPECIFIED') ) ;
#337 = DIRECTION ( 'NONE',  ( -2.226630543904280996E-17, 1.000000000000000000, 0.000000000000000000 ) ) ;
#338 = ADVANCED_FACE ( 'NONE', ( #161 ), #289, .T. ) ;
#339 = CARTESIAN_POINT ( 'NONE',  ( -10.50000000000000000, -1.650000000000000133, 0.000000000000000000 ) ) ;
#340 = FACE_OUTER_BOUND ( 'NONE', #276, .T. ) ;
#341 = LINE ( 'NONE', #309, #67 ) ;
#342 = LINE ( 'NONE', #344, #228 ) ;
#343 = ORIENTED_EDGE ( 'NONE', *, *, #158, .F. ) ;
#344 = CARTESIAN_POINT ( 'NONE',  ( -5.500000000000000000, 2.999999999999999556, 0.000000000000000000 ) ) ;
#345 = CARTESIAN_POINT ( 'NONE',  ( -5.500000000000000000, -1.224646799147354440E-16, 0.000000000000000000 ) ) ;
#346 = ORIENTED_EDGE ( 'NONE', *, *, #12, .T. ) ;
#347 = CALENDAR_DATE ( 2022, 1, 6 ) ;
#348 = APPROVAL_PERSON_ORGANIZATION ( #124, #214, #254 ) ;
#349 = CC_DESIGN_DATE_AND_TIME_ASSIGNMENT ( #164, #30, ( #220 ) ) ;
#350 = ADVANCED_FACE ( 'NONE', ( #370 ), #363, .T. ) ;
#351 = CARTESIAN_POINT ( 'NONE',  ( -5.500000000000000000, -1.649999999999999467, 2.020667218593132262E-16 ) ) ;
#352 = DATE_AND_TIME ( #62, #173 ) ;
#353 = ORIENTED_EDGE ( 'NONE', *, *, #38, .T. ) ;
#354 = DESIGN_CONTEXT ( 'detailed design', #87, 'design' ) ;
#355 = VERTEX_POINT ( 'NONE', #108 ) ;
#356 = AXIS2_PLACEMENT_3D ( 'NONE', #183, #83, #211 ) ;
#357 = DATE_AND_TIME ( #321, #304 ) ;
#358 = VERTEX_POINT ( 'NONE', #6 ) ;
#359 = DIRECTION ( 'NONE',  ( 0.000000000000000000, 1.000000000000000000, 0.000000000000000000 ) ) ;
#360 = DATE_AND_TIME ( #9, #75 ) ;
#361 = FACE_OUTER_BOUND ( 'NONE', #5, .T. ) ;
#362 = EDGE_CURVE ( 'NONE', #219, #225, #294, .T. ) ;
#363 = CONICAL_SURFACE ( 'NONE', #311, 3.000000000000004441, 0.7853981633974453924 ) ;
#364 = CC_DESIGN_PERSON_AND_ORGANIZATION_ASSIGNMENT ( #224, #4, ( #385 ) ) ;
#365 = FACE_OUTER_BOUND ( 'NONE', #7, .T. ) ;
#366 = CARTESIAN_POINT ( 'NONE',  ( -5.500000000000000000, 1.649999999999999245, 0.000000000000000000 ) ) ;
#367 = CARTESIAN_POINT ( 'NONE',  ( -5.500000000000000000, -1.224646799147354440E-16, 0.000000000000000000 ) ) ;
#368 = DIRECTION ( 'NONE',  ( 1.000000000000000000, 1.224646799147353207E-16, -0.000000000000000000 ) ) ;
#369 = ADVANCED_BREP_SHAPE_REPRESENTATION ( '358882358885', ( #43, #172, #216 ), #270 ) ;
#370 = FACE_OUTER_BOUND ( 'NONE', #258, .T. ) ;
#371 = CC_DESIGN_SECURITY_CLASSIFICATION ( #220, ( #154 ) ) ;
#372 = ORIENTED_EDGE ( 'NONE', *, *, #244, .T. ) ;
#373 = CARTESIAN_POINT ( 'NONE',  ( 0.000000000000000000, 0.000000000000000000, 0.000000000000000000 ) ) ;
#374 = PRODUCT_DEFINITION ( 'UNKNOWN', '', #154, #354 ) ;
#375 = VECTOR ( 'NONE', #48, 999.9999999999998863 ) ;
#376 = CIRCLE ( 'NONE', #277, 1.649999999999999245 ) ;
#377 = DATE_AND_TIME ( #162, #405 ) ;
#378 = EDGE_CURVE ( 'NONE', #225, #219, #89, .T. ) ;
#379 = ADVANCED_FACE ( 'NONE', ( #76 ), #298, .T. ) ;
#380 = LINE ( 'NONE', #57, #49 ) ;
#381 = APPROVAL_ROLE ( '' ) ;
#382 = CARTESIAN_POINT ( 'NONE',  ( -5.500000000000000000, -1.224646799147354193E-16, 0.000000000000000000 ) ) ;
#383 = COORDINATED_UNIVERSAL_TIME_OFFSET ( 1, 0, .AHEAD. ) ;
#384 = DIRECTION ( 'NONE',  ( 1.000000000000000000, 1.224646799147353207E-16, -0.000000000000000000 ) ) ;
#385 = PRODUCT ( '358882358885', '358882358885', '', ( #35 ) ) ;
#386 = PERSON_AND_ORGANIZATION_ROLE ( 'creator' ) ;
#387 = ORIENTED_EDGE ( 'NONE', *, *, #52, .F. ) ;
#388 = DIRECTION ( 'NONE',  ( -1.000000000000000000, -1.224646799147353207E-16, 0.000000000000000000 ) ) ;
#389 = PERSON_AND_ORGANIZATION ( #336, #300 ) ;
#390 = ORIENTED_EDGE ( 'NONE', *, *, #63, .T. ) ;
#391 = DIRECTION ( 'NONE',  ( -0.9659258262890700886, 0.2588190451025142447, 3.169619151431687288E-17 ) ) ;
#392 = DIRECTION ( 'NONE',  ( 1.000000000000000000, 1.224646799147353207E-16, -0.000000000000000000 ) ) ;
#393 = ADVANCED_FACE ( 'NONE', ( #227 ), #118, .T. ) ;
#394 = CARTESIAN_POINT ( 'NONE',  ( -5.500000000000000000, -1.224646799147354193E-16, 0.000000000000000000 ) ) ;
#395 = DIRECTION ( 'NONE',  ( 1.000000000000000000, 1.224646799147353207E-16, -0.000000000000000000 ) ) ;
#396 = LINE ( 'NONE', #148, #93 ) ;
#397 = CYLINDRICAL_SURFACE ( 'NONE', #21, 1.750000000000000222 ) ;
#398 = CC_DESIGN_APPROVAL ( #214, ( #154 ) ) ;
#399 = VERTEX_POINT ( 'NONE', #106 ) ;
#400 = VERTEX_POINT ( 'NONE', #331 ) ;
#401 = PRODUCT_RELATED_PRODUCT_CATEGORY ( 'detail', '', ( #385 ) ) ;
#402 = APPROVAL ( #251, 'UNSPECIFIED' ) ;
#403 = ORIENTED_EDGE ( 'NONE', *, *, #44, .F. ) ;
#404 = CARTESIAN_POINT ( 'NONE',  ( -3.061616997868383634E-17, 1.750000000000000000, 0.000000000000000000 ) ) ;
#405 = LOCAL_TIME ( 13, 23, 43.00000000000000000, #32 ) ;
#406 = EDGE_LOOP ( 'NONE', ( #200, #346, #390, #86 ) ) ;
#407 = PERSON_AND_ORGANIZATION ( #336, #300 ) ;
#408 = VERTEX_POINT ( 'NONE', #256 ) ;
#409 = DIRECTION ( 'NONE',  ( -1.000000000000000000, -1.224646799147353207E-16, 0.000000000000000000 ) ) ;
#410 = PERSON_AND_ORGANIZATION ( #336, #300 ) ;
#411 = EDGE_LOOP ( 'NONE', ( #184, #36, #2, #137 ) ) ;
#412 = CARTESIAN_POINT ( 'NONE',  ( -5.500000000000000000, -1.224646799147354440E-16, 0.000000000000000000 ) ) ;
#413 = ORIENTED_EDGE ( 'NONE', *, *, #63, .F. ) ;
ENDSEC;
END-ISO-10303-21;
