ISO-10303-21;
HEADER;
FILE_DESCRIPTION (( 'STEP AP203' ),
    '1' );
FILE_NAME ('358882358882.step',
    '2022-06-01T11:23:42',
    ( '' ),
    ( '' ),
    'SwSTEP 2.0',
    'SolidWorks 2019',
    '' );
FILE_SCHEMA (( 'CONFIG_CONTROL_DESIGN' ));
ENDSEC;

DATA;
#1 = DIRECTION ( 'NONE',  ( 1.000000000000000000, 1.377342313791838116E-16, -0.000000000000000000 ) ) ;
#2 = DIRECTION ( 'NONE',  ( 1.000000000000000000, 1.377342313791838116E-16, -0.000000000000000000 ) ) ;
#3 = AXIS2_PLACEMENT_3D ( 'NONE', #77, #238, #303 ) ;
#4 = DIRECTION ( 'NONE',  ( -1.000000000000000000, -1.377342313791838116E-16, 0.000000000000000000 ) ) ;
#5 = CARTESIAN_POINT ( 'NONE',  ( -14.97128129211033887, -6.711415313693957901E-16, 0.000000000000000000 ) ) ;
#6 = ADVANCED_FACE ( 'NONE', ( #234 ), #390, .T. ) ;
#7 = DIRECTION ( 'NONE',  ( 1.000000000000000000, 1.377342313791838116E-16, -0.000000000000000000 ) ) ;
#8 = DIRECTION ( 'NONE',  ( -1.000000000000000000, -1.377342313791838116E-16, 0.000000000000000000 ) ) ;
#9 = ORIENTED_EDGE ( 'NONE', *, *, #205, .F. ) ;
#10 = CIRCLE ( 'NONE', #237, 1.499999999999999112 ) ;
#11 = FACE_OUTER_BOUND ( 'NONE', #264, .T. ) ;
#12 = CARTESIAN_POINT ( 'NONE',  ( -54.39999999999999858, -6.101825796866623934E-15, 0.000000000000000000 ) ) ;
#13 = PERSON_AND_ORGANIZATION_ROLE ( 'creator' ) ;
#14 = ORIENTED_EDGE ( 'NONE', *, *, #339, .T. ) ;
#15 = ADVANCED_FACE ( 'NONE', ( #144 ), #176, .T. ) ;
#16 = ORIENTED_EDGE ( 'NONE', *, *, #306, .T. ) ;
#17 = APPROVAL ( #146, 'UNSPECIFIED' ) ;
#18 = PERSON_AND_ORGANIZATION_ROLE ( 'creator' ) ;
#19 = DIRECTION ( 'NONE',  ( 1.000000000000000000, 1.377342313791838116E-16, -0.000000000000000000 ) ) ;
#20 = ORIENTED_EDGE ( 'NONE', *, *, #371, .T. ) ;
#21 =( NAMED_UNIT ( * ) PLANE_ANGLE_UNIT ( ) SI_UNIT ( $, .RADIAN. ) );
#22 = CLOSED_SHELL ( 'NONE', ( #35, #6, #116, #175, #15, #98, #275, #349, #219, #274 ) ) ;
#23 = AXIS2_PLACEMENT_3D ( 'NONE', #322, #162, #319 ) ;
#24 = ORIENTED_EDGE ( 'NONE', *, *, #263, .T. ) ;
#25 = CARTESIAN_POINT ( 'NONE',  ( -9.000000000000000000, 1.399999999999998579, 1.714505518806292173E-16 ) ) ;
#26 = CARTESIAN_POINT ( 'NONE',  ( -4.500000000000000000, 7.711123489546484576E-16, 0.000000000000000000 ) ) ;
#27 = APPLICATION_CONTEXT ( 'configuration controlled 3d designs of mechanical parts and assemblies' ) ;
#28 = PERSON ( 'UNSPECIFIED', 'UNSPECIFIED', 'UNSPECIFIED', ('UNSPECIFIED'), ('UNSPECIFIED'), ('UNSPECIFIED') ) ;
#29 = DIRECTION ( 'NONE',  ( 0.000000000000000000, 1.000000000000000000, 0.000000000000000000 ) ) ;
#30 = DIRECTION ( 'NONE',  ( 1.000000000000000000, -1.713582997676996655E-16, -0.000000000000000000 ) ) ;
#31 = APPROVAL_DATE_TIME ( #374, #17 ) ;
#32 = CARTESIAN_POINT ( 'NONE',  ( -9.000000000000000000, 1.513083077483213793E-16, 0.000000000000000000 ) ) ;
#33 = LINE ( 'NONE', #217, #335 ) ;
#34 = PRODUCT_RELATED_PRODUCT_CATEGORY ( 'detail', '', ( #39 ) ) ;
#35 = ADVANCED_FACE ( 'NONE', ( #409 ), #373, .T. ) ;
#36 = LINE ( 'NONE', #289, #58 ) ;
#37 = CIRCLE ( 'NONE', #138, 2.999999999999993339 ) ;
#38 = DIRECTION ( 'NONE',  ( 0.7071067811865493491, 0.7071067811865455743, 0.000000000000000000 ) ) ;
#39 = PRODUCT ( '358882358882', '358882358882', '', ( #145 ) ) ;
#40 = DIRECTION ( 'NONE',  ( 1.000000000000000000, 1.377342313791838116E-16, -0.000000000000000000 ) ) ;
#41 = DIRECTION ( 'NONE',  ( 1.000000000000000000, -1.713582997676996655E-16, -0.000000000000000000 ) ) ;
#42 = CYLINDRICAL_SURFACE ( 'NONE', #411, 2.999999999999999112 ) ;
#43 = CARTESIAN_POINT ( 'NONE',  ( -4.500000000000000000, 7.711123489546484576E-16, 0.000000000000000000 ) ) ;
#44 = EDGE_CURVE ( 'NONE', #262, #368, #62, .T. ) ;
#45 = ORIENTED_EDGE ( 'NONE', *, *, #44, .T. ) ;
#46 = CIRCLE ( 'NONE', #287, 1.499999999999999112 ) ;
#47 = ORIENTED_EDGE ( 'NONE', *, *, #148, .T. ) ;
#48 = ORIENTED_EDGE ( 'NONE', *, *, #129, .T. ) ;
#49 = APPROVAL_STATUS ( 'not_yet_approved' ) ;
#50 = VERTEX_POINT ( 'NONE', #375 ) ;
#51 = VECTOR ( 'NONE', #341, 1000.000000000000114 ) ;
#52 = APPROVAL_PERSON_ORGANIZATION ( #396, #177, #72 ) ;
#53 = ORIENTED_EDGE ( 'NONE', *, *, #74, .F. ) ;
#54 = CARTESIAN_POINT ( 'NONE',  ( -5.476409312786970740E-16, -1.500000000000000222, 1.836970198721030674E-16 ) ) ;
#55 = CC_DESIGN_PERSON_AND_ORGANIZATION_ASSIGNMENT ( #202, #327, ( #337 ) ) ;
#56 = EDGE_CURVE ( 'NONE', #67, #137, #89, .T. ) ;
#57 = CARTESIAN_POINT ( 'NONE',  ( -14.97128129211033887, 2.999999999999992895, 0.000000000000000000 ) ) ;
#58 = VECTOR ( 'NONE', #63, 1000.000000000000000 ) ;
#59 = CARTESIAN_POINT ( 'NONE',  ( -54.39999999999999858, 2.999999999999997780, 0.000000000000000000 ) ) ;
#60 = FACE_OUTER_BOUND ( 'NONE', #382, .T. ) ;
#61 = DIRECTION ( 'NONE',  ( 1.000000000000000000, 1.377342313791838116E-16, -0.000000000000000000 ) ) ;
#62 = CIRCLE ( 'NONE', #229, 1.399999999999998357 ) ;
#63 = DIRECTION ( 'NONE',  ( 1.000000000000000000, -1.713582997676996655E-16, -0.000000000000000000 ) ) ;
#64 = VERTEX_POINT ( 'NONE', #376 ) ;
#65 = DIRECTION ( 'NONE',  ( 1.713582997676996655E-16, 1.000000000000000000, 0.000000000000000000 ) ) ;
#66 = CARTESIAN_POINT ( 'NONE',  ( -9.000000000000000000, 1.399999999999998579, 2.694222958124172076E-16 ) ) ;
#67 = VERTEX_POINT ( 'NONE', #156 ) ;
#68 = CARTESIAN_POINT ( 'NONE',  ( -55.00000000000000000, 2.399999999999998579, 0.000000000000000000 ) ) ;
#69 = CIRCLE ( 'NONE', #295, 2.400000000000004352 ) ;
#70 = ORIENTED_EDGE ( 'NONE', *, *, #103, .F. ) ;
#71 = AXIS2_PLACEMENT_3D ( 'NONE', #160, #200, #282 ) ;
#72 = APPROVAL_ROLE ( '' ) ;
#73 = DIRECTION ( 'NONE',  ( 1.000000000000000000, 1.377342313791838116E-16, -0.000000000000000000 ) ) ;
#74 = EDGE_CURVE ( 'NONE', #336, #331, #69, .T. ) ;
#75 = ORIENTED_EDGE ( 'NONE', *, *, #44, .F. ) ;
#76 = COORDINATED_UNIVERSAL_TIME_OFFSET ( 1, 0, .AHEAD. ) ;
#77 = CARTESIAN_POINT ( 'NONE',  ( -9.000000000000000000, 1.513083077483213793E-16, 0.000000000000000000 ) ) ;
#78 = VECTOR ( 'NONE', #165, 1000.000000000000000 ) ;
#79 = ORIENTED_EDGE ( 'NONE', *, *, #285, .T. ) ;
#80 = DIRECTION ( 'NONE',  ( 0.000000000000000000, 1.000000000000000000, 0.000000000000000000 ) ) ;
#81 = EDGE_LOOP ( 'NONE', ( #75, #328, #184, #321 ) ) ;
#82 = ORIENTED_EDGE ( 'NONE', *, *, #182, .T. ) ;
#83 = VECTOR ( 'NONE', #151, 1000.000000000000000 ) ;
#84 = CONICAL_SURFACE ( 'NONE', #153, 3.000000000000004441, 0.7853981633974453924 ) ;
#85 = FACE_OUTER_BOUND ( 'NONE', #300, .T. ) ;
#86 = EDGE_CURVE ( 'NONE', #331, #336, #410, .T. ) ;
#87 = CC_DESIGN_DATE_AND_TIME_ASSIGNMENT ( #309, #342, ( #337 ) ) ;
#88 = DIRECTION ( 'NONE',  ( 0.000000000000000000, 1.000000000000000000, 0.000000000000000000 ) ) ;
#89 = LINE ( 'NONE', #247, #83 ) ;
#90 = CARTESIAN_POINT ( 'NONE',  ( -55.00000000000000000, -6.184466335694133659E-15, 0.000000000000000000 ) ) ;
#91 = DESIGN_CONTEXT ( 'detailed design', #27, 'design' ) ;
#92 = LINE ( 'NONE', #347, #207 ) ;
#93 = CARTESIAN_POINT ( 'NONE',  ( -4.500000000000000000, -2.999999999999998224, 3.673940397442058882E-16 ) ) ;
#94 = VERTEX_POINT ( 'NONE', #59 ) ;
#95 = CARTESIAN_POINT ( 'NONE',  ( -9.000000000000000000, 1.513083077483213793E-16, 0.000000000000000000 ) ) ;
#96 = ORIENTED_EDGE ( 'NONE', *, *, #220, .T. ) ;
#97 = LOCAL_TIME ( 13, 23, 42.00000000000000000, #404 ) ;
#98 = ADVANCED_FACE ( 'NONE', ( #115 ), #377, .T. ) ;
#99 = FACE_OUTER_BOUND ( 'NONE', #140, .T. ) ;
#100 = EDGE_LOOP ( 'NONE', ( #227, #334, #48, #14 ) ) ;
#101 = PLANE ( 'NONE',  #365 ) ;
#102 = DIRECTION ( 'NONE',  ( 0.000000000000000000, 1.000000000000000000, 0.000000000000000000 ) ) ;
#103 = EDGE_CURVE ( 'NONE', #386, #94, #302, .T. ) ;
#104 =( GEOMETRIC_REPRESENTATION_CONTEXT ( 3 ) GLOBAL_UNCERTAINTY_ASSIGNED_CONTEXT ( ( #408 ) ) GLOBAL_UNIT_ASSIGNED_CONTEXT ( ( #173, #21, #363 ) ) REPRESENTATION_CONTEXT ( 'NONE', 'WORKASPACE' ) );
#105 = DIRECTION ( 'NONE',  ( 0.000000000000000000, 1.000000000000000000, 0.000000000000000000 ) ) ;
#106 = SECURITY_CLASSIFICATION_LEVEL ( 'unclassified' ) ;
#107 = ORIENTED_EDGE ( 'NONE', *, *, #194, .F. ) ;
#108 = PERSON_AND_ORGANIZATION ( #28, #297 ) ;
#109 = VERTEX_POINT ( 'NONE', #313 ) ;
#110 = APPROVAL_STATUS ( 'not_yet_approved' ) ;
#111 = EDGE_LOOP ( 'NONE', ( #352, #370, #178, #70 ) ) ;
#112 = CIRCLE ( 'NONE', #345, 1.500000000000000000 ) ;
#113 = ORIENTED_EDGE ( 'NONE', *, *, #245, .T. ) ;
#114 = ORIENTED_EDGE ( 'NONE', *, *, #56, .T. ) ;
#115 = FACE_OUTER_BOUND ( 'NONE', #241, .T. ) ;
#116 = ADVANCED_FACE ( 'NONE', ( #85 ), #121, .T. ) ;
#117 = EDGE_CURVE ( 'NONE', #94, #170, #248, .T. ) ;
#118 = CARTESIAN_POINT ( 'NONE',  ( -4.500000000000000000, 7.711123489546484576E-16, 0.000000000000000000 ) ) ;
#119 = CIRCLE ( 'NONE', #211, 3.000000000000004441 ) ;
#120 = APPROVAL_PERSON_ORGANIZATION ( #108, #320, #239 ) ;
#121 = CYLINDRICAL_SURFACE ( 'NONE', #236, 2.999999999999999112 ) ;
#122 = CARTESIAN_POINT ( 'NONE',  ( -55.00000000000000000, -6.184466335694135237E-15, 0.000000000000000000 ) ) ;
#123 = CARTESIAN_POINT ( 'NONE',  ( -9.000000000000000000, -1.399999999999998135, 0.000000000000000000 ) ) ;
#124 = AXIS2_PLACEMENT_3D ( 'NONE', #253, #230, #254 ) ;
#125 = DIRECTION ( 'NONE',  ( 1.713582997676996655E-16, 1.000000000000000000, 0.000000000000000000 ) ) ;
#126 = DIRECTION ( 'NONE',  ( 0.000000000000000000, 1.000000000000000000, 0.000000000000000000 ) ) ;
#127 = DIRECTION ( 'NONE',  ( 0.000000000000000000, 1.000000000000000000, 0.000000000000000000 ) ) ;
#128 = CC_DESIGN_PERSON_AND_ORGANIZATION_ASSIGNMENT ( #261, #391, ( #350 ) ) ;
#129 = EDGE_CURVE ( 'NONE', #368, #283, #276, .T. ) ;
#130 = AXIS2_PLACEMENT_3D ( 'NONE', #90, #4, #213 ) ;
#131 = PLANE ( 'NONE',  #71 ) ;
#132 = ORIENTED_EDGE ( 'NONE', *, *, #339, .F. ) ;
#133 = FACE_OUTER_BOUND ( 'NONE', #100, .T. ) ;
#134 = PERSON_AND_ORGANIZATION ( #28, #297 ) ;
#135 = CARTESIAN_POINT ( 'NONE',  ( -4.500000000000000000, -1.399999999999997247, 1.714505518806291926E-16 ) ) ;
#136 = CALENDAR_DATE ( 2022, 1, 6 ) ;
#137 = VERTEX_POINT ( 'NONE', #54 ) ;
#138 = AXIS2_PLACEMENT_3D ( 'NONE', #5, #7, #324 ) ;
#139 = AXIS2_PLACEMENT_3D ( 'NONE', #273, #398, #406 ) ;
#140 = EDGE_LOOP ( 'NONE', ( #317, #257, #240, #132 ) ) ;
#141 = COORDINATED_UNIVERSAL_TIME_OFFSET ( 1, 0, .AHEAD. ) ;
#142 = ORIENTED_EDGE ( 'NONE', *, *, #56, .F. ) ;
#143 = ORIENTED_EDGE ( 'NONE', *, *, #383, .F. ) ;
#144 = FACE_OUTER_BOUND ( 'NONE', #224, .T. ) ;
#145 = MECHANICAL_CONTEXT ( 'NONE', #392, 'mechanical' ) ;
#146 = APPROVAL_STATUS ( 'not_yet_approved' ) ;
#147 = CC_DESIGN_PERSON_AND_ORGANIZATION_ASSIGNMENT ( #174, #18, ( #161 ) ) ;
#148 = EDGE_CURVE ( 'NONE', #331, #386, #33, .T. ) ;
#149 = CARTESIAN_POINT ( 'NONE',  ( 0.000000000000000000, 0.000000000000000000, 0.000000000000000000 ) ) ;
#150 = DIRECTION ( 'NONE',  ( 1.000000000000000000, -1.713582997676996655E-16, -0.000000000000000000 ) ) ;
#151 = DIRECTION ( 'NONE',  ( 1.000000000000000000, -1.713582997676996655E-16, -0.000000000000000000 ) ) ;
#152 = APPROVAL_ROLE ( '' ) ;
#153 = AXIS2_PLACEMENT_3D ( 'NONE', #187, #379, #310 ) ;
#154 = VECTOR ( 'NONE', #329, 1000.000000000000000 ) ;
#155 = DIRECTION ( 'NONE',  ( 0.000000000000000000, 1.000000000000000000, 0.000000000000000000 ) ) ;
#156 = CARTESIAN_POINT ( 'NONE',  ( -4.500000000000000000, -1.499999999999998224, 1.836970198721029194E-16 ) ) ;
#157 = DIRECTION ( 'NONE',  ( 1.000000000000000000, 1.377342313791838116E-16, -0.000000000000000000 ) ) ;
#158 = CARTESIAN_POINT ( 'NONE',  ( -4.500000000000000000, 7.711123489546484576E-16, 0.000000000000000000 ) ) ;
#159 = ADVANCED_FACE ( 'NONE', ( #60 ), #191, .T. ) ;
#160 = CARTESIAN_POINT ( 'NONE',  ( -4.500000000000000000, 7.711123489546484576E-16, 0.000000000000000000 ) ) ;
#161 = PRODUCT_DEFINITION ( 'UNKNOWN', '', #350, #91 ) ;
#162 = DIRECTION ( 'NONE',  ( 1.000000000000000000, -1.713582997676996655E-16, -0.000000000000000000 ) ) ;
#163 = CARTESIAN_POINT ( 'NONE',  ( -9.000000000000000000, -1.399999999999998135, 0.000000000000000000 ) ) ;
#164 = CIRCLE ( 'NONE', #124, 1.399999999999997691 ) ;
#165 = DIRECTION ( 'NONE',  ( 1.000000000000000000, 1.377342313791838116E-16, -0.000000000000000000 ) ) ;
#166 = CARTESIAN_POINT ( 'NONE',  ( -14.97128129211033887, -2.999999999999994227, 3.673940397442054938E-16 ) ) ;
#167 = MANIFOLD_SOLID_BREP ( 'Révolution1', #22 ) ;
#168 = COORDINATED_UNIVERSAL_TIME_OFFSET ( 1, 0, .AHEAD. ) ;
#169 = DIRECTION ( 'NONE',  ( 0.000000000000000000, 1.000000000000000000, 0.000000000000000000 ) ) ;
#170 = VERTEX_POINT ( 'NONE', #57 ) ;
#171 = CIRCLE ( 'NONE', #188, 1.399999999999997691 ) ;
#172 = LOCAL_TIME ( 13, 23, 42.00000000000000000, #168 ) ;
#173 =( LENGTH_UNIT ( ) NAMED_UNIT ( * ) SI_UNIT ( .MILLI., .METRE. ) );
#174 = PERSON_AND_ORGANIZATION ( #28, #297 ) ;
#175 = ADVANCED_FACE ( 'NONE', ( #252 ), #84, .T. ) ;
#176 = PLANE ( 'NONE',  #249 ) ;
#177 = APPROVAL ( #110, 'UNSPECIFIED' ) ;
#178 = ORIENTED_EDGE ( 'NONE', *, *, #293, .T. ) ;
#179 = CALENDAR_DATE ( 2022, 1, 6 ) ;
#180 = ORIENTED_EDGE ( 'NONE', *, *, #233, .F. ) ;
#181 = CONICAL_SURFACE ( 'NONE', #401, 3.000000000000004441, 0.7853981633974453924 ) ;
#182 = EDGE_CURVE ( 'NONE', #262, #64, #92, .T. ) ;
#183 = CC_DESIGN_APPROVAL ( #320, ( #161 ) ) ;
#184 = ORIENTED_EDGE ( 'NONE', *, *, #194, .T. ) ;
#185 = PERSON_AND_ORGANIZATION_ROLE ( 'design_owner' ) ;
#186 = FACE_OUTER_BOUND ( 'NONE', #393, .T. ) ;
#187 = CARTESIAN_POINT ( 'NONE',  ( -54.39999999999999858, -6.101825796866623934E-15, 0.000000000000000000 ) ) ;
#188 = AXIS2_PLACEMENT_3D ( 'NONE', #258, #290, #198 ) ;
#189 = AXIS2_PLACEMENT_3D ( 'NONE', #149, #381, #260 ) ;
#190 = DIRECTION ( 'NONE',  ( 1.000000000000000000, 1.377342313791838116E-16, -0.000000000000000000 ) ) ;
#191 = CYLINDRICAL_SURFACE ( 'NONE', #215, 1.499999999999999556 ) ;
#192 = CARTESIAN_POINT ( 'NONE',  ( -54.39999999999999858, -6.101825796866623934E-15, 0.000000000000000000 ) ) ;
#193 = ADVANCED_FACE ( 'NONE', ( #186 ), #304, .T. ) ;
#194 = EDGE_CURVE ( 'NONE', #170, #283, #268, .T. ) ;
#195 = AXIS2_PLACEMENT_3D ( 'NONE', #388, #256, #102 ) ;
#196 = FACE_OUTER_BOUND ( 'NONE', #208, .T. ) ;
#197 = ORIENTED_EDGE ( 'NONE', *, *, #364, .T. ) ;
#198 = DIRECTION ( 'NONE',  ( 0.000000000000000000, 1.000000000000000000, 0.000000000000000000 ) ) ;
#199 = DIRECTION ( 'NONE',  ( 1.000000000000000000, 1.377342313791838116E-16, -0.000000000000000000 ) ) ;
#200 = DIRECTION ( 'NONE',  ( -1.000000000000000000, 1.713582997676996655E-16, 0.000000000000000000 ) ) ;
#201 = CARTESIAN_POINT ( 'NONE',  ( -4.500000000000000000, 7.711123489546484576E-16, 0.000000000000000000 ) ) ;
#202 = PERSON_AND_ORGANIZATION ( #28, #297 ) ;
#203 = ORIENTED_EDGE ( 'NONE', *, *, #306, .F. ) ;
#204 = CC_DESIGN_PERSON_AND_ORGANIZATION_ASSIGNMENT ( #372, #185, ( #39 ) ) ;
#205 = EDGE_CURVE ( 'NONE', #64, #50, #164, .T. ) ;
#206 = ORIENTED_EDGE ( 'NONE', *, *, #220, .F. ) ;
#207 = VECTOR ( 'NONE', #61, 1000.000000000000000 ) ;
#208 = EDGE_LOOP ( 'NONE', ( #79, #24 ) ) ;
#209 = ORIENTED_EDGE ( 'NONE', *, *, #263, .F. ) ;
#210 = ORIENTED_EDGE ( 'NONE', *, *, #182, .F. ) ;
#211 = AXIS2_PLACEMENT_3D ( 'NONE', #12, #353, #316 ) ;
#212 = DIRECTION ( 'NONE',  ( 1.000000000000000000, 1.377342313791838116E-16, -0.000000000000000000 ) ) ;
#213 = DIRECTION ( 'NONE',  ( 1.377342313791838116E-16, -1.000000000000000000, 0.000000000000000000 ) ) ;
#214 = CARTESIAN_POINT ( 'NONE',  ( -54.39999999999999858, -6.101825796866623934E-15, 0.000000000000000000 ) ) ;
#215 = AXIS2_PLACEMENT_3D ( 'NONE', #279, #30, #125 ) ;
#216 = CC_DESIGN_APPROVAL ( #17, ( #337 ) ) ;
#217 = CARTESIAN_POINT ( 'NONE',  ( -54.39999999999999858, -3.000000000000010658, 3.673940397442064798E-16 ) ) ;
#218 = DIRECTION ( 'NONE',  ( -1.377342313791838116E-16, 1.000000000000000000, 0.000000000000000000 ) ) ;
#219 = ADVANCED_FACE ( 'NONE', ( #133 ), #330, .T. ) ;
#220 = EDGE_CURVE ( 'NONE', #50, #64, #171, .T. ) ;
#221 = FACE_OUTER_BOUND ( 'NONE', #405, .T. ) ;
#222 = AXIS2_PLACEMENT_3D ( 'NONE', #259, #291, #105 ) ;
#223 = LINE ( 'NONE', #93, #78 ) ;
#224 = EDGE_LOOP ( 'NONE', ( #298, #96 ) ) ;
#225 = DIRECTION ( 'NONE',  ( 0.000000000000000000, -1.000000000000000000, 0.000000000000000000 ) ) ;
#226 = CARTESIAN_POINT ( 'NONE',  ( -55.00000000000000000, -2.400000000000010569, 3.306546357697859650E-16 ) ) ;
#227 = ORIENTED_EDGE ( 'NONE', *, *, #395, .F. ) ;
#228 = DATE_AND_TIME ( #265, #231 ) ;
#229 = AXIS2_PLACEMENT_3D ( 'NONE', #32, #1, #244 ) ;
#230 = DIRECTION ( 'NONE',  ( 1.000000000000000000, 1.377342313791838116E-16, -0.000000000000000000 ) ) ;
#231 = LOCAL_TIME ( 13, 23, 42.00000000000000000, #141 ) ;
#232 = ORIENTED_EDGE ( 'NONE', *, *, #117, .F. ) ;
#233 = EDGE_CURVE ( 'NONE', #94, #386, #119, .T. ) ;
#234 = FACE_OUTER_BOUND ( 'NONE', #81, .T. ) ;
#235 = LINE ( 'NONE', #25, #154 ) ;
#236 = AXIS2_PLACEMENT_3D ( 'NONE', #340, #2, #88 ) ;
#237 = AXIS2_PLACEMENT_3D ( 'NONE', #43, #294, #326 ) ;
#238 = DIRECTION ( 'NONE',  ( -1.000000000000000000, -1.377342313791838116E-16, 0.000000000000000000 ) ) ;
#239 = APPROVAL_ROLE ( '' ) ;
#240 = ORIENTED_EDGE ( 'NONE', *, *, #117, .T. ) ;
#241 = EDGE_LOOP ( 'NONE', ( #53, #360 ) ) ;
#242 = DIRECTION ( 'NONE',  ( 0.000000000000000000, 1.000000000000000000, 0.000000000000000000 ) ) ;
#243 = CIRCLE ( 'NONE', #222, 1.399999999999998357 ) ;
#244 = DIRECTION ( 'NONE',  ( 0.000000000000000000, 1.000000000000000000, 0.000000000000000000 ) ) ;
#245 = EDGE_CURVE ( 'NONE', #386, #283, #223, .T. ) ;
#246 = CC_DESIGN_DATE_AND_TIME_ASSIGNMENT ( #228, #358, ( #161 ) ) ;
#247 = CARTESIAN_POINT ( 'NONE',  ( -2.570374496515494366E-16, -1.499999999999999556, 1.836970198721029441E-16 ) ) ;
#248 = LINE ( 'NONE', #278, #399 ) ;
#249 = AXIS2_PLACEMENT_3D ( 'NONE', #299, #19, #218 ) ;
#250 = VECTOR ( 'NONE', #38, 1000.000000000000114 ) ;
#251 = EDGE_CURVE ( 'NONE', #368, #50, #387, .T. ) ;
#252 = FACE_OUTER_BOUND ( 'NONE', #362, .T. ) ;
#253 = CARTESIAN_POINT ( 'NONE',  ( -4.500000000000000000, 7.711123489546484576E-16, 0.000000000000000000 ) ) ;
#254 = DIRECTION ( 'NONE',  ( 0.000000000000000000, 1.000000000000000000, 0.000000000000000000 ) ) ;
#255 = AXIS2_PLACEMENT_3D ( 'NONE', #214, #190, #242 ) ;
#256 = DIRECTION ( 'NONE',  ( 1.000000000000000000, 1.377342313791838116E-16, -0.000000000000000000 ) ) ;
#257 = ORIENTED_EDGE ( 'NONE', *, *, #103, .T. ) ;
#258 = CARTESIAN_POINT ( 'NONE',  ( -4.500000000000000000, 7.711123489546484576E-16, 0.000000000000000000 ) ) ;
#259 = CARTESIAN_POINT ( 'NONE',  ( -9.000000000000000000, 1.513083077483213793E-16, 0.000000000000000000 ) ) ;
#260 = DIRECTION ( 'NONE',  ( 1.713582997676996655E-16, 1.000000000000000000, 0.000000000000000000 ) ) ;
#261 = PERSON_AND_ORGANIZATION ( #28, #297 ) ;
#262 = VERTEX_POINT ( 'NONE', #66 ) ;
#263 = EDGE_CURVE ( 'NONE', #137, #333, #357, .T. ) ;
#264 = EDGE_LOOP ( 'NONE', ( #366, #143 ) ) ;
#265 = CALENDAR_DATE ( 2022, 1, 6 ) ;
#266 = EDGE_LOOP ( 'NONE', ( #45, #354, #9, #210 ) ) ;
#267 = DATE_AND_TIME ( #179, #172 ) ;
#268 = CIRCLE ( 'NONE', #195, 2.999999999999993339 ) ;
#269 = ORIENTED_EDGE ( 'NONE', *, *, #293, .F. ) ;
#270 = ORIENTED_EDGE ( 'NONE', *, *, #251, .F. ) ;
#271 = CALENDAR_DATE ( 2022, 1, 6 ) ;
#272 = CARTESIAN_POINT ( 'NONE',  ( -55.00000000000000000, -6.184466335694135237E-15, 0.000000000000000000 ) ) ;
#273 = CARTESIAN_POINT ( 'NONE',  ( 0.000000000000000000, 0.000000000000000000, 0.000000000000000000 ) ) ;
#274 = ADVANCED_FACE ( 'NONE', ( #221 ), #359, .T. ) ;
#275 = ADVANCED_FACE ( 'NONE', ( #351 ), #181, .T. ) ;
#276 = LINE ( 'NONE', #123, #51 ) ;
#277 = PERSON_AND_ORGANIZATION ( #28, #297 ) ;
#278 = CARTESIAN_POINT ( 'NONE',  ( -4.500000000000000000, 3.000000000000000000, 0.000000000000000000 ) ) ;
#279 = CARTESIAN_POINT ( 'NONE',  ( 0.000000000000000000, 0.000000000000000000, 0.000000000000000000 ) ) ;
#280 = CC_DESIGN_APPROVAL ( #177, ( #350 ) ) ;
#281 = CARTESIAN_POINT ( 'NONE',  ( 1.117357088379757658E-16, 1.500000000000000000, 0.000000000000000000 ) ) ;
#282 = DIRECTION ( 'NONE',  ( -1.713582997676996655E-16, -1.000000000000000000, 0.000000000000000000 ) ) ;
#283 = VERTEX_POINT ( 'NONE', #166 ) ;
#284 = DIRECTION ( 'NONE',  ( 1.000000000000000000, -1.713582997676996655E-16, -0.000000000000000000 ) ) ;
#285 = EDGE_CURVE ( 'NONE', #333, #137, #112, .T. ) ;
#286 = AXIS2_PLACEMENT_3D ( 'NONE', #26, #212, #29 ) ;
#287 = AXIS2_PLACEMENT_3D ( 'NONE', #118, #150, #80 ) ;
#288 = CC_DESIGN_SECURITY_CLASSIFICATION ( #337, ( #350 ) ) ;
#289 = CARTESIAN_POINT ( 'NONE',  ( 2.570374496515494366E-16, 1.499999999999999556, 0.000000000000000000 ) ) ;
#290 = DIRECTION ( 'NONE',  ( 1.000000000000000000, 1.377342313791838116E-16, -0.000000000000000000 ) ) ;
#291 = DIRECTION ( 'NONE',  ( 1.000000000000000000, 1.377342313791838116E-16, -0.000000000000000000 ) ) ;
#292 = MANIFOLD_SOLID_BREP ( 'Révolution2', #323 ) ;
#293 = EDGE_CURVE ( 'NONE', #336, #94, #344, .T. ) ;
#294 = DIRECTION ( 'NONE',  ( 1.000000000000000000, -1.713582997676996655E-16, -0.000000000000000000 ) ) ;
#295 = AXIS2_PLACEMENT_3D ( 'NONE', #272, #157, #308 ) ;
#296 = AXIS2_PLACEMENT_3D ( 'NONE', #95, #8, #225 ) ;
#297 = ORGANIZATION ( 'UNSPECIFIED', 'UNSPECIFIED', '' ) ;
#298 = ORIENTED_EDGE ( 'NONE', *, *, #205, .T. ) ;
#299 = CARTESIAN_POINT ( 'NONE',  ( -4.500000000000000000, 7.711123489546484576E-16, 0.000000000000000000 ) ) ;
#300 = EDGE_LOOP ( 'NONE', ( #403, #113, #107, #232 ) ) ;
#301 = DATE_AND_TIME ( #136, #315 ) ;
#302 = CIRCLE ( 'NONE', #255, 3.000000000000004441 ) ;
#303 = DIRECTION ( 'NONE',  ( 0.000000000000000000, -1.000000000000000000, 0.000000000000000000 ) ) ;
#304 = CYLINDRICAL_SURFACE ( 'NONE', #189, 1.499999999999999556 ) ;
#305 = APPLICATION_PROTOCOL_DEFINITION ( 'international standard', 'config_control_design', 1994, #392 ) ;
#306 = EDGE_CURVE ( 'NONE', #109, #333, #36, .T. ) ;
#307 = ADVANCED_FACE ( 'NONE', ( #196 ), #101, .T. ) ;
#308 = DIRECTION ( 'NONE',  ( 0.000000000000000000, 1.000000000000000000, 0.000000000000000000 ) ) ;
#309 = DATE_AND_TIME ( #271, #97 ) ;
#310 = DIRECTION ( 'NONE',  ( 0.000000000000000000, 1.000000000000000000, 0.000000000000000000 ) ) ;
#311 = AXIS2_PLACEMENT_3D ( 'NONE', #158, #199, #127 ) ;
#312 = DIRECTION ( 'NONE',  ( 1.000000000000000000, 1.377342313791838116E-16, -0.000000000000000000 ) ) ;
#313 = CARTESIAN_POINT ( 'NONE',  ( -4.500000000000000000, 1.500000000000000000, 0.000000000000000000 ) ) ;
#314 = DIRECTION ( 'NONE',  ( 1.713582997676996901E-16, 1.000000000000000000, 0.000000000000000000 ) ) ;
#315 = LOCAL_TIME ( 13, 23, 42.00000000000000000, #76 ) ;
#316 = DIRECTION ( 'NONE',  ( 0.000000000000000000, 1.000000000000000000, 0.000000000000000000 ) ) ;
#317 = ORIENTED_EDGE ( 'NONE', *, *, #245, .F. ) ;
#318 = ADVANCED_FACE ( 'NONE', ( #11 ), #131, .T. ) ;
#319 = DIRECTION ( 'NONE',  ( 1.713582997676996901E-16, 1.000000000000000000, 0.000000000000000000 ) ) ;
#320 = APPROVAL ( #49, 'UNSPECIFIED' ) ;
#321 = ORIENTED_EDGE ( 'NONE', *, *, #129, .F. ) ;
#322 = CARTESIAN_POINT ( 'NONE',  ( -2.906034816271474895E-16, 4.979731851820194847E-32, 0.000000000000000000 ) ) ;
#323 = CLOSED_SHELL ( 'NONE', ( #193, #307, #318, #159 ) ) ;
#324 = DIRECTION ( 'NONE',  ( 0.000000000000000000, 1.000000000000000000, 0.000000000000000000 ) ) ;
#325 = CC_DESIGN_PERSON_AND_ORGANIZATION_ASSIGNMENT ( #134, #13, ( #350 ) ) ;
#326 = DIRECTION ( 'NONE',  ( 0.000000000000000000, 1.000000000000000000, 0.000000000000000000 ) ) ;
#327 = PERSON_AND_ORGANIZATION_ROLE ( 'classification_officer' ) ;
#328 = ORIENTED_EDGE ( 'NONE', *, *, #395, .T. ) ;
#329 = DIRECTION ( 'NONE',  ( -0.9659258262890699775, 0.2588190451025145222, 3.169619151431689753E-17 ) ) ;
#330 = CONICAL_SURFACE ( 'NONE', #296, 1.399999999999998357, 0.2617993877991430796 ) ;
#331 = VERTEX_POINT ( 'NONE', #226 ) ;
#332 = CARTESIAN_POINT ( 'NONE',  ( -54.39999999999999858, -3.000000000000011102, 3.673940397442065291E-16 ) ) ;
#333 = VERTEX_POINT ( 'NONE', #355 ) ;
#334 = ORIENTED_EDGE ( 'NONE', *, *, #371, .F. ) ;
#335 = VECTOR ( 'NONE', #346, 1000.000000000000000 ) ;
#336 = VERTEX_POINT ( 'NONE', #68 ) ;
#337 = SECURITY_CLASSIFICATION ( '', '', #106 ) ;
#338 = CALENDAR_DATE ( 2022, 1, 6 ) ;
#339 = EDGE_CURVE ( 'NONE', #283, #170, #37, .T. ) ;
#340 = CARTESIAN_POINT ( 'NONE',  ( -4.500000000000000000, 7.711123489546484576E-16, 0.000000000000000000 ) ) ;
#341 = DIRECTION ( 'NONE',  ( -0.9659258262890698665, -0.2588190451025146888, 0.000000000000000000 ) ) ;
#342 = DATE_TIME_ROLE ( 'classification_date' ) ;
#343 = AXIS2_PLACEMENT_3D ( 'NONE', #122, #412, #155 ) ;
#344 = LINE ( 'NONE', #348, #250 ) ;
#345 = AXIS2_PLACEMENT_3D ( 'NONE', #385, #41, #314 ) ;
#346 = DIRECTION ( 'NONE',  ( 0.7071067811865496822, -0.7071067811865453523, 8.659560562354908206E-17 ) ) ;
#347 = CARTESIAN_POINT ( 'NONE',  ( -4.500000000000000000, 1.399999999999998801, 0.000000000000000000 ) ) ;
#348 = CARTESIAN_POINT ( 'NONE',  ( -54.39999999999999858, 2.999999999999998224, 0.000000000000000000 ) ) ;
#349 = ADVANCED_FACE ( 'NONE', ( #99 ), #42, .T. ) ;
#350 = PRODUCT_DEFINITION_FORMATION_WITH_SPECIFIED_SOURCE ( 'ANY', '', #39, .NOT_KNOWN. ) ;
#351 = FACE_OUTER_BOUND ( 'NONE', #111, .T. ) ;
#352 = ORIENTED_EDGE ( 'NONE', *, *, #148, .F. ) ;
#353 = DIRECTION ( 'NONE',  ( 1.000000000000000000, 1.377342313791838116E-16, -0.000000000000000000 ) ) ;
#354 = ORIENTED_EDGE ( 'NONE', *, *, #251, .T. ) ;
#355 = CARTESIAN_POINT ( 'NONE',  ( -3.356603197559798510E-17, 1.500000000000000000, 0.000000000000000000 ) ) ;
#356 = ORIENTED_EDGE ( 'NONE', *, *, #285, .F. ) ;
#357 = CIRCLE ( 'NONE', #23, 1.500000000000000000 ) ;
#358 = DATE_TIME_ROLE ( 'creation_date' ) ;
#359 = CYLINDRICAL_SURFACE ( 'NONE', #311, 1.399999999999998135 ) ;
#360 = ORIENTED_EDGE ( 'NONE', *, *, #86, .F. ) ;
#361 = APPLICATION_PROTOCOL_DEFINITION ( 'international standard', 'config_control_design', 1994, #27 ) ;
#362 = EDGE_LOOP ( 'NONE', ( #394, #47, #180, #269 ) ) ;
#363 =( NAMED_UNIT ( * ) SI_UNIT ( $, .STERADIAN. ) SOLID_ANGLE_UNIT ( ) );
#364 = EDGE_CURVE ( 'NONE', #109, #67, #10, .T. ) ;
#365 = AXIS2_PLACEMENT_3D ( 'NONE', #281, #284, #65 ) ;
#366 = ORIENTED_EDGE ( 'NONE', *, *, #364, .F. ) ;
#367 = APPROVAL_DATE_TIME ( #301, #320 ) ;
#368 = VERTEX_POINT ( 'NONE', #163 ) ;
#369 = SHAPE_DEFINITION_REPRESENTATION ( #380, #389 ) ;
#370 = ORIENTED_EDGE ( 'NONE', *, *, #86, .T. ) ;
#371 = EDGE_CURVE ( 'NONE', #368, #262, #243, .T. ) ;
#372 = PERSON_AND_ORGANIZATION ( #28, #297 ) ;
#373 = CYLINDRICAL_SURFACE ( 'NONE', #286, 1.399999999999998135 ) ;
#374 = DATE_AND_TIME ( #338, #402 ) ;
#375 = CARTESIAN_POINT ( 'NONE',  ( -4.500000000000000000, -1.399999999999996803, 1.714505518806291680E-16 ) ) ;
#376 = CARTESIAN_POINT ( 'NONE',  ( -4.500000000000000000, 1.399999999999998579, 0.000000000000000000 ) ) ;
#377 = PLANE ( 'NONE',  #130 ) ;
#378 = VECTOR ( 'NONE', #40, 1000.000000000000000 ) ;
#379 = DIRECTION ( 'NONE',  ( 1.000000000000000000, 1.377342313791838116E-16, -0.000000000000000000 ) ) ;
#380 = PRODUCT_DEFINITION_SHAPE ( 'NONE', 'NONE',  #161 ) ;
#381 = DIRECTION ( 'NONE',  ( 1.000000000000000000, -1.713582997676996655E-16, -0.000000000000000000 ) ) ;
#382 = EDGE_LOOP ( 'NONE', ( #142, #397, #16, #209 ) ) ;
#383 = EDGE_CURVE ( 'NONE', #67, #109, #46, .T. ) ;
#384 = DIRECTION ( 'NONE',  ( 1.000000000000000000, 1.377342313791838116E-16, -0.000000000000000000 ) ) ;
#385 = CARTESIAN_POINT ( 'NONE',  ( -2.906034816271474895E-16, 4.979731851820194847E-32, 0.000000000000000000 ) ) ;
#386 = VERTEX_POINT ( 'NONE', #332 ) ;
#387 = LINE ( 'NONE', #135, #378 ) ;
#388 = CARTESIAN_POINT ( 'NONE',  ( -14.97128129211033887, -6.711415313693957901E-16, 0.000000000000000000 ) ) ;
#389 = ADVANCED_BREP_SHAPE_REPRESENTATION ( '358882358882', ( #167, #292, #139 ), #104 ) ;
#390 = CONICAL_SURFACE ( 'NONE', #3, 1.399999999999998357, 0.2617993877991430796 ) ;
#391 = PERSON_AND_ORGANIZATION_ROLE ( 'design_supplier' ) ;
#392 = APPLICATION_CONTEXT ( 'configuration controlled 3d designs of mechanical parts and assemblies' ) ;
#393 = EDGE_LOOP ( 'NONE', ( #197, #114, #356, #203 ) ) ;
#394 = ORIENTED_EDGE ( 'NONE', *, *, #74, .T. ) ;
#395 = EDGE_CURVE ( 'NONE', #262, #170, #235, .T. ) ;
#396 = PERSON_AND_ORGANIZATION ( #28, #297 ) ;
#397 = ORIENTED_EDGE ( 'NONE', *, *, #383, .T. ) ;
#398 = DIRECTION ( 'NONE',  ( 0.000000000000000000, 0.000000000000000000, 1.000000000000000000 ) ) ;
#399 = VECTOR ( 'NONE', #312, 1000.000000000000000 ) ;
#400 = APPROVAL_DATE_TIME ( #267, #177 ) ;
#401 = AXIS2_PLACEMENT_3D ( 'NONE', #192, #384, #126 ) ;
#402 = LOCAL_TIME ( 13, 23, 42.00000000000000000, #407 ) ;
#403 = ORIENTED_EDGE ( 'NONE', *, *, #233, .T. ) ;
#404 = COORDINATED_UNIVERSAL_TIME_OFFSET ( 1, 0, .AHEAD. ) ;
#405 = EDGE_LOOP ( 'NONE', ( #270, #20, #82, #206 ) ) ;
#406 = DIRECTION ( 'NONE',  ( 1.000000000000000000, 0.000000000000000000, 0.000000000000000000 ) ) ;
#407 = COORDINATED_UNIVERSAL_TIME_OFFSET ( 1, 0, .AHEAD. ) ;
#408 = UNCERTAINTY_MEASURE_WITH_UNIT (LENGTH_MEASURE( 1.000000000000000082E-05 ), #173, 'distance_accuracy_value', 'NONE');
#409 = FACE_OUTER_BOUND ( 'NONE', #266, .T. ) ;
#410 = CIRCLE ( 'NONE', #343, 2.400000000000004352 ) ;
#411 = AXIS2_PLACEMENT_3D ( 'NONE', #201, #73, #169 ) ;
#412 = DIRECTION ( 'NONE',  ( 1.000000000000000000, 1.377342313791838116E-16, -0.000000000000000000 ) ) ;
#413 = APPROVAL_PERSON_ORGANIZATION ( #277, #17, #152 ) ;
ENDSEC;
END-ISO-10303-21;
