ISO-10303-21;
HEADER;
FILE_DESCRIPTION (( 'STEP AP203' ),
    '1' );
FILE_NAME ('35871.step',
    '2021-10-07T13:46:35',
    ( '' ),
    ( '' ),
    'SwSTEP 2.0',
    'SolidWorks 2019',
    '' );
FILE_SCHEMA (( 'CONFIG_CONTROL_DESIGN' ));
ENDSEC;

DATA;
#1 = AXIS2_PLACEMENT_3D ( 'NONE', #74, #54, #121 ) ;
#2 = CARTESIAN_POINT ( 'NONE',  ( 1.047444401652940007E-13, 0.5499999999999963807, 30.00000000000000000 ) ) ;
#3 = EDGE_LOOP ( 'NONE', ( #71 ) ) ;
#4 = DIRECTION ( 'NONE',  ( 4.141784826639232587E-31, 1.000000000000000000, 1.165808787618826391E-16 ) ) ;
#5 = CARTESIAN_POINT ( 'NONE',  ( 2.478951750578624367E-14, 3.486941494688800601E-33, 7.099999999999999645 ) ) ;
#6 = APPLICATION_CONTEXT ( 'configuration controlled 3d designs of mechanical parts and assemblies' ) ;
#7 = CARTESIAN_POINT ( 'NONE',  ( 0.0000000000000000000, 0.0000000000000000000, 0.0000000000000000000 ) ) ;
#8 = ORIENTED_EDGE ( 'NONE', *, *, #171, .T. ) ;
#9 = CARTESIAN_POINT ( 'NONE',  ( 9.755205419399210086E-16, -3.421665457289989866E-17, 0.2794001878478175604 ) ) ;
#10 = ORIENTED_EDGE ( 'NONE', *, *, #66, .F. ) ;
#11 = VERTEX_POINT ( 'NONE', #147 ) ;
#12 = ADVANCED_FACE ( 'NONE', ( #42 ), #217, .T. ) ;
#13 = CALENDAR_DATE ( 2021, 7, 10 ) ;
#14 = PERSON_AND_ORGANIZATION ( #119, #122 ) ;
#15 = AXIS2_PLACEMENT_3D ( 'NONE', #213, #19, #127 ) ;
#16 = CC_DESIGN_PERSON_AND_ORGANIZATION_ASSIGNMENT ( #94, #78, ( #162 ) ) ;
#17 = AXIS2_PLACEMENT_3D ( 'NONE', #5, #60, #193 ) ;
#18 = ADVANCED_FACE ( 'NONE', ( #152, #114 ), #170, .T. ) ;
#19 = DIRECTION ( 'NONE',  ( 3.491481338843133355E-15, -1.224646799147353207E-16, 1.000000000000000000 ) ) ;
#20 = EDGE_LOOP ( 'NONE', ( #146 ) ) ;
#21 = AXIS2_PLACEMENT_3D ( 'NONE', #9, #101, #4 ) ;
#22 = FACE_OUTER_BOUND ( 'NONE', #178, .T. ) ;
#23 = EDGE_LOOP ( 'NONE', ( #10 ) ) ;
#24 = CARTESIAN_POINT ( 'NONE',  ( 9.755205419399210086E-16, -3.421665457289989866E-17, 0.2794001878478175604 ) ) ;
#25 = CARTESIAN_POINT ( 'NONE',  ( 1.047444401652940007E-13, -3.673940397442059178E-15, 30.00000000000000000 ) ) ;
#26 = FACE_OUTER_BOUND ( 'NONE', #194, .T. ) ;
#27 = ORIENTED_EDGE ( 'NONE', *, *, #190, .T. ) ;
#28 = DATE_TIME_ROLE ( 'creation_date' ) ;
#29 = DATE_AND_TIME ( #132, #149 ) ;
#30 = PERSON_AND_ORGANIZATION_ROLE ( 'classification_officer' ) ;
#31 = CALENDAR_DATE ( 2021, 7, 10 ) ;
#32 = PERSON_AND_ORGANIZATION ( #119, #122 ) ;
#33 = CALENDAR_DATE ( 2021, 7, 10 ) ;
#34 = DATE_AND_TIME ( #33, #53 ) ;
#35 = CLOSED_SHELL ( 'NONE', ( #91, #18, #173, #67, #106 ) ) ;
#36 = CARTESIAN_POINT ( 'NONE',  ( 1.040461438975253740E-13, -3.649447461459112464E-15, 29.80000000000000071 ) ) ;
#37 = CC_DESIGN_APPROVAL ( #84, ( #124 ) ) ;
#38 = CYLINDRICAL_SURFACE ( 'NONE', #182, 0.7499999999999985567 ) ;
#39 = EDGE_LOOP ( 'NONE', ( #128 ) ) ;
#40 = FACE_OUTER_BOUND ( 'NONE', #20, .T. ) ;
#41 = DIRECTION ( 'NONE',  ( 4.275831445896959482E-31, 1.000000000000000000, 1.224646799147353454E-16 ) ) ;
#42 = FACE_OUTER_BOUND ( 'NONE', #3, .T. ) ;
#43 = CC_DESIGN_APPROVAL ( #51, ( #97 ) ) ;
#44 = PERSON_AND_ORGANIZATION ( #119, #122 ) ;
#45 = MANIFOLD_SOLID_BREP ( 'Corps-Déplacer/Copier1[2]', #99 ) ;
#46 = CARTESIAN_POINT ( 'NONE',  ( 2.651303308146441167E-14, 0.7499999999999963363, 7.593634480157134270 ) ) ;
#47 = CC_DESIGN_SECURITY_CLASSIFICATION ( #97, ( #162 ) ) ;
#48 = COORDINATED_UNIVERSAL_TIME_OFFSET ( 1, 0, .AHEAD. ) ;
#49 = ADVANCED_BREP_SHAPE_REPRESENTATION ( '35871', ( #116, #45, #103 ), #136 ) ;
#50 = APPLICATION_CONTEXT ( 'configuration controlled 3d designs of mechanical parts and assemblies' ) ;
#51 = APPROVAL ( #81, 'UNSPECIFIED' ) ;
#52 = CONICAL_SURFACE ( 'NONE', #156, 0.5500000000000000444, 0.7853981633974510546 ) ;
#53 = LOCAL_TIME ( 15, 46, 35.00000000000000000, #82 ) ;
#54 = DIRECTION ( 'NONE',  ( -3.491481338843133355E-15, 1.224646799147353207E-16, -1.000000000000000000 ) ) ;
#55 = CARTESIAN_POINT ( 'NONE',  ( 2.478951750578624367E-14, 0.4649999999999984146, 7.099999999999999645 ) ) ;
#56 = ADVANCED_FACE ( 'NONE', ( #214, #180 ), #72, .T. ) ;
#57 = APPROVAL_PERSON_ORGANIZATION ( #165, #219, #65 ) ;
#58 = CARTESIAN_POINT ( 'NONE',  ( 1.047444401652940007E-13, -3.673940397442059178E-15, 30.00000000000000000 ) ) ;
#59 = ORIENTED_EDGE ( 'NONE', *, *, #110, .F. ) ;
#60 = DIRECTION ( 'NONE',  ( 3.491481338843133355E-15, -1.224646799147353207E-16, 1.000000000000000000 ) ) ;
#61 = DIRECTION ( 'NONE',  ( 3.491481338843133355E-15, -1.224646799147353207E-16, 1.000000000000000000 ) ) ;
#62 = PERSON_AND_ORGANIZATION_ROLE ( 'creator' ) ;
#63 =( LENGTH_UNIT ( ) NAMED_UNIT ( * ) SI_UNIT ( .MILLI., .METRE. ) );
#64 = DIRECTION ( 'NONE',  ( 0.0000000000000000000, 0.0000000000000000000, 1.000000000000000000 ) ) ;
#65 = APPROVAL_ROLE ( '' ) ;
#66 = EDGE_CURVE ( 'NONE', #174, #174, #112, .T. ) ;
#67 = ADVANCED_FACE ( 'NONE', ( #87, #161 ), #52, .T. ) ;
#68 = CIRCLE ( 'NONE', #191, 0.5500000000000000444 ) ;
#69 = PRODUCT_DEFINITION_SHAPE ( 'NONE', 'NONE',  #124 ) ;
#70 = VERTEX_POINT ( 'NONE', #139 ) ;
#71 = ORIENTED_EDGE ( 'NONE', *, *, #171, .F. ) ;
#72 = CYLINDRICAL_SURFACE ( 'NONE', #187, 0.4649999999999987477 ) ;
#73 = DIRECTION ( 'NONE',  ( -3.491481338843133355E-15, 1.224646799147353207E-16, -1.000000000000000000 ) ) ;
#74 = CARTESIAN_POINT ( 'NONE',  ( 1.047444401652940007E-13, 4.124339402320052999E-33, 30.00000000000000000 ) ) ;
#75 = ORIENTED_EDGE ( 'NONE', *, *, #66, .T. ) ;
#76 = DIRECTION ( 'NONE',  ( 0.0000000000000000000, 1.000000000000000000, 0.0000000000000000000 ) ) ;
#77 = ORIENTED_EDGE ( 'NONE', *, *, #163, .F. ) ;
#78 = PERSON_AND_ORGANIZATION_ROLE ( 'creator' ) ;
#79 = CC_DESIGN_DATE_AND_TIME_ASSIGNMENT ( #29, #28, ( #124 ) ) ;
#80 = DATE_AND_TIME ( #13, #138 ) ;
#81 = APPROVAL_STATUS ( 'not_yet_approved' ) ;
#82 = COORDINATED_UNIVERSAL_TIME_OFFSET ( 1, 0, .AHEAD. ) ;
#83 = CC_DESIGN_DATE_AND_TIME_ASSIGNMENT ( #80, #205, ( #97 ) ) ;
#84 = APPROVAL ( #184, 'UNSPECIFIED' ) ;
#85 = CARTESIAN_POINT ( 'NONE',  ( 2.478951750578624367E-14, 0.4649999999999984146, 7.099999999999999645 ) ) ;
#86 = CIRCLE ( 'NONE', #143, 0.7499999999999998890 ) ;
#87 = FACE_OUTER_BOUND ( 'NONE', #215, .T. ) ;
#88 = DIRECTION ( 'NONE',  ( 3.491481338843133355E-15, -1.224646799147353207E-16, 1.000000000000000000 ) ) ;
#89 = DIRECTION ( 'NONE',  ( 0.0000000000000000000, 1.000000000000000000, 0.0000000000000000000 ) ) ;
#90 = AXIS2_PLACEMENT_3D ( 'NONE', #105, #102, #177 ) ;
#91 = ADVANCED_FACE ( 'NONE', ( #141 ), #209, .F. ) ;
#92 = DIRECTION ( 'NONE',  ( -3.491481338843133355E-15, 1.224646799147353207E-16, -1.000000000000000000 ) ) ;
#93 = APPROVAL_DATE_TIME ( #95, #219 ) ;
#94 = PERSON_AND_ORGANIZATION ( #119, #122 ) ;
#95 = DATE_AND_TIME ( #189, #144 ) ;
#96 = APPLICATION_PROTOCOL_DEFINITION ( 'international standard', 'config_control_design', 1994, #6 ) ;
#97 = SECURITY_CLASSIFICATION ( '', '', #186 ) ;
#98 = SHAPE_DEFINITION_REPRESENTATION ( #69, #49 ) ;
#99 = CLOSED_SHELL ( 'NONE', ( #207, #56, #12 ) ) ;
#100 = PRODUCT ( '35871', '35871', '', ( #113 ) ) ;
#101 = DIRECTION ( 'NONE',  ( -3.491481338843133355E-15, 1.224646799147353207E-16, -1.000000000000000000 ) ) ;
#102 = DIRECTION ( 'NONE',  ( -3.491481338843133355E-15, 1.224646799147353207E-16, -1.000000000000000000 ) ) ;
#103 = AXIS2_PLACEMENT_3D ( 'NONE', #111, #64, #148 ) ;
#104 = DIRECTION ( 'NONE',  ( 4.275831445896957731E-31, 1.000000000000000000, 1.224646799147352961E-16 ) ) ;
#105 = CARTESIAN_POINT ( 'NONE',  ( 2.478951750578624367E-14, -8.694992273946207746E-16, 7.099999999999999645 ) ) ;
#106 = ADVANCED_FACE ( 'NONE', ( #197 ), #120, .F. ) ;
#107 = EDGE_LOOP ( 'NONE', ( #59 ) ) ;
#108 = DIRECTION ( 'NONE',  ( -3.491481338843133355E-15, 1.224646799147353207E-16, -1.000000000000000000 ) ) ;
#109 = VERTEX_POINT ( 'NONE', #46 ) ;
#110 = EDGE_CURVE ( 'NONE', #158, #158, #68, .T. ) ;
#111 = CARTESIAN_POINT ( 'NONE',  ( 0.0000000000000000000, 0.0000000000000000000, 0.0000000000000000000 ) ) ;
#112 = CIRCLE ( 'NONE', #208, 0.4649999999999992473 ) ;
#113 = MECHANICAL_CONTEXT ( 'NONE', #6, 'mechanical' ) ;
#114 = FACE_OUTER_BOUND ( 'NONE', #200, .T. ) ;
#115 = AXIS2_PLACEMENT_3D ( 'NONE', #24, #88, #164 ) ;
#116 = MANIFOLD_SOLID_BREP ( 'Corps-Déplacer/Copier1[1]', #35 ) ;
#117 = APPROVAL_ROLE ( '' ) ;
#118 = CARTESIAN_POINT ( 'NONE',  ( 2.478951750578624367E-14, -8.694992273946207746E-16, 7.099999999999999645 ) ) ;
#119 = PERSON ( 'UNSPECIFIED', 'UNSPECIFIED', 'UNSPECIFIED', ('UNSPECIFIED'), ('UNSPECIFIED'), ('UNSPECIFIED') ) ;
#120 = PLANE ( 'NONE',  #1 ) ;
#121 = DIRECTION ( 'NONE',  ( 4.275831445896958607E-31, 1.000000000000000000, 1.224646799147353207E-16 ) ) ;
#122 = ORGANIZATION ( 'UNSPECIFIED', 'UNSPECIFIED', '' ) ;
#123 = ORIENTED_EDGE ( 'NONE', *, *, #210, .T. ) ;
#124 = PRODUCT_DEFINITION ( 'UNKNOWN', '', #162, #130 ) ;
#125 = DIRECTION ( 'NONE',  ( -3.491481338843133355E-15, 1.224646799147353207E-16, -1.000000000000000000 ) ) ;
#126 = ORIENTED_EDGE ( 'NONE', *, *, #210, .F. ) ;
#127 = DIRECTION ( 'NONE',  ( 0.0000000000000000000, -1.000000000000000000, 0.0000000000000000000 ) ) ;
#128 = ORIENTED_EDGE ( 'NONE', *, *, #110, .T. ) ;
#129 = CC_DESIGN_PERSON_AND_ORGANIZATION_ASSIGNMENT ( #32, #30, ( #97 ) ) ;
#130 = DESIGN_CONTEXT ( 'detailed design', #50, 'design' ) ;
#131 = PERSON_AND_ORGANIZATION_ROLE ( 'design_supplier' ) ;
#132 = CALENDAR_DATE ( 2021, 7, 10 ) ;
#133 = CIRCLE ( 'NONE', #90, 0.4649999999999992473 ) ;
#134 = APPROVAL_STATUS ( 'not_yet_approved' ) ;
#135 = CC_DESIGN_PERSON_AND_ORGANIZATION_ASSIGNMENT ( #150, #131, ( #162 ) ) ;
#136 =( GEOMETRIC_REPRESENTATION_CONTEXT ( 3 ) GLOBAL_UNCERTAINTY_ASSIGNED_CONTEXT ( ( #221 ) ) GLOBAL_UNIT_ASSIGNED_CONTEXT ( ( #63, #201, #151 ) ) REPRESENTATION_CONTEXT ( 'NONE', 'WORKASPACE' ) );
#137 = AXIS2_PLACEMENT_3D ( 'NONE', #140, #61, #212 ) ;
#138 = LOCAL_TIME ( 15, 46, 35.00000000000000000, #166 ) ;
#139 = CARTESIAN_POINT ( 'NONE',  ( 1.040461438975253740E-13, 0.7499999999999962252, 29.80000000000000071 ) ) ;
#140 = CARTESIAN_POINT ( 'NONE',  ( 2.478951750578624367E-14, 3.486941494688800601E-33, 7.099999999999999645 ) ) ;
#141 = FACE_OUTER_BOUND ( 'NONE', #198, .T. ) ;
#142 = CC_DESIGN_PERSON_AND_ORGANIZATION_ASSIGNMENT ( #188, #153, ( #100 ) ) ;
#143 = AXIS2_PLACEMENT_3D ( 'NONE', #36, #92, #199 ) ;
#144 = LOCAL_TIME ( 15, 46, 35.00000000000000000, #204 ) ;
#145 = CARTESIAN_POINT ( 'NONE',  ( 0.0000000000000000000, 0.0000000000000000000, 0.0000000000000000000 ) ) ;
#146 = ORIENTED_EDGE ( 'NONE', *, *, #163, .T. ) ;
#147 = CARTESIAN_POINT ( 'NONE',  ( 9.755205419399212059E-16, 0.4649999999999981926, 0.2794001878478176160 ) ) ;
#148 = DIRECTION ( 'NONE',  ( 1.000000000000000000, 0.0000000000000000000, 0.0000000000000000000 ) ) ;
#149 = LOCAL_TIME ( 15, 46, 35.00000000000000000, #185 ) ;
#150 = PERSON_AND_ORGANIZATION ( #119, #122 ) ;
#151 =( NAMED_UNIT ( * ) SI_UNIT ( $, .STERADIAN. ) SOLID_ANGLE_UNIT ( ) );
#152 = FACE_BOUND ( 'NONE', #23, .T. ) ;
#153 = PERSON_AND_ORGANIZATION_ROLE ( 'design_owner' ) ;
#154 = AXIS2_PLACEMENT_3D ( 'NONE', #179, #108, #76 ) ;
#155 = LOCAL_TIME ( 15, 46, 35.00000000000000000, #48 ) ;
#156 = AXIS2_PLACEMENT_3D ( 'NONE', #58, #73, #160 ) ;
#157 = CC_DESIGN_APPROVAL ( #219, ( #162 ) ) ;
#158 = VERTEX_POINT ( 'NONE', #2 ) ;
#159 = DIRECTION ( 'NONE',  ( -3.491481338843133355E-15, 1.224646799147353207E-16, -1.000000000000000000 ) ) ;
#160 = DIRECTION ( 'NONE',  ( 0.0000000000000000000, 1.000000000000000000, 0.0000000000000000000 ) ) ;
#161 = FACE_BOUND ( 'NONE', #39, .T. ) ;
#162 = PRODUCT_DEFINITION_FORMATION_WITH_SPECIFIED_SOURCE ( 'ANY', '', #100, .NOT_KNOWN. ) ;
#163 = EDGE_CURVE ( 'NONE', #70, #70, #86, .T. ) ;
#164 = DIRECTION ( 'NONE',  ( -4.141784826639232587E-31, -1.000000000000000000, -1.165808787618826391E-16 ) ) ;
#165 = PERSON_AND_ORGANIZATION ( #119, #122 ) ;
#166 = COORDINATED_UNIVERSAL_TIME_OFFSET ( 1, 0, .AHEAD. ) ;
#167 = CC_DESIGN_PERSON_AND_ORGANIZATION_ASSIGNMENT ( #168, #62, ( #124 ) ) ;
#168 = PERSON_AND_ORGANIZATION ( #119, #122 ) ;
#169 = APPLICATION_PROTOCOL_DEFINITION ( 'international standard', 'config_control_design', 1994, #50 ) ;
#170 = CONICAL_SURFACE ( 'NONE', #15, 0.7499999999999973355, 0.5235987755982913772 ) ;
#171 = EDGE_CURVE ( 'NONE', #211, #211, #133, .T. ) ;
#172 = APPROVAL_DATE_TIME ( #34, #51 ) ;
#173 = ADVANCED_FACE ( 'NONE', ( #22, #40 ), #38, .T. ) ;
#174 = VERTEX_POINT ( 'NONE', #85 ) ;
#175 = PRODUCT_RELATED_PRODUCT_CATEGORY ( 'detail', '', ( #100 ) ) ;
#176 = APPROVAL_PERSON_ORGANIZATION ( #44, #84, #222 ) ;
#177 = DIRECTION ( 'NONE',  ( 0.0000000000000000000, 1.000000000000000000, 0.0000000000000000000 ) ) ;
#178 = EDGE_LOOP ( 'NONE', ( #183 ) ) ;
#179 = CARTESIAN_POINT ( 'NONE',  ( 2.651303308146441167E-14, -9.299520160019409985E-16, 7.593634480157134270 ) ) ;
#180 = FACE_OUTER_BOUND ( 'NONE', #196, .T. ) ;
#181 = EDGE_LOOP ( 'NONE', ( #126 ) ) ;
#182 = AXIS2_PLACEMENT_3D ( 'NONE', #145, #216, #41 ) ;
#183 = ORIENTED_EDGE ( 'NONE', *, *, #190, .F. ) ;
#184 = APPROVAL_STATUS ( 'not_yet_approved' ) ;
#185 = COORDINATED_UNIVERSAL_TIME_OFFSET ( 1, 0, .AHEAD. ) ;
#186 = SECURITY_CLASSIFICATION_LEVEL ( 'unclassified' ) ;
#187 = AXIS2_PLACEMENT_3D ( 'NONE', #7, #125, #104 ) ;
#188 = PERSON_AND_ORGANIZATION ( #119, #122 ) ;
#189 = CALENDAR_DATE ( 2021, 7, 10 ) ;
#190 = EDGE_CURVE ( 'NONE', #109, #109, #220, .T. ) ;
#191 = AXIS2_PLACEMENT_3D ( 'NONE', #25, #159, #192 ) ;
#192 = DIRECTION ( 'NONE',  ( 0.0000000000000000000, 1.000000000000000000, 0.0000000000000000000 ) ) ;
#193 = DIRECTION ( 'NONE',  ( -4.275831445896958607E-31, -1.000000000000000000, -1.224646799147353207E-16 ) ) ;
#194 = EDGE_LOOP ( 'NONE', ( #123 ) ) ;
#195 = DIRECTION ( 'NONE',  ( -3.491481338843133355E-15, 1.224646799147353207E-16, -1.000000000000000000 ) ) ;
#196 = EDGE_LOOP ( 'NONE', ( #8 ) ) ;
#197 = FACE_OUTER_BOUND ( 'NONE', #107, .T. ) ;
#198 = EDGE_LOOP ( 'NONE', ( #75 ) ) ;
#199 = DIRECTION ( 'NONE',  ( 0.0000000000000000000, 1.000000000000000000, 0.0000000000000000000 ) ) ;
#200 = EDGE_LOOP ( 'NONE', ( #27 ) ) ;
#201 =( NAMED_UNIT ( * ) PLANE_ANGLE_UNIT ( ) SI_UNIT ( $, .RADIAN. ) );
#202 = APPROVAL_PERSON_ORGANIZATION ( #14, #51, #117 ) ;
#203 = APPROVAL_DATE_TIME ( #223, #84 ) ;
#204 = COORDINATED_UNIVERSAL_TIME_OFFSET ( 1, 0, .AHEAD. ) ;
#205 = DATE_TIME_ROLE ( 'classification_date' ) ;
#206 = CONICAL_SURFACE ( 'NONE', #115, 0.4649999999999982481, 1.029744258676649649 ) ;
#207 = ADVANCED_FACE ( 'NONE', ( #26 ), #206, .T. ) ;
#208 = AXIS2_PLACEMENT_3D ( 'NONE', #118, #195, #89 ) ;
#209 = PLANE ( 'NONE',  #17 ) ;
#210 = EDGE_CURVE ( 'NONE', #11, #11, #218, .T. ) ;
#211 = VERTEX_POINT ( 'NONE', #55 ) ;
#212 = DIRECTION ( 'NONE',  ( -4.275831445896958607E-31, -1.000000000000000000, -1.224646799147353207E-16 ) ) ;
#213 = CARTESIAN_POINT ( 'NONE',  ( 2.651303308146441167E-14, -9.299520160019409985E-16, 7.593634480157134270 ) ) ;
#214 = FACE_OUTER_BOUND ( 'NONE', #181, .T. ) ;
#215 = EDGE_LOOP ( 'NONE', ( #77 ) ) ;
#216 = DIRECTION ( 'NONE',  ( -3.491481338843133355E-15, 1.224646799147353207E-16, -1.000000000000000000 ) ) ;
#217 = PLANE ( 'NONE',  #137 ) ;
#218 = CIRCLE ( 'NONE', #21, 0.4649999999999982481 ) ;
#219 = APPROVAL ( #134, 'UNSPECIFIED' ) ;
#220 = CIRCLE ( 'NONE', #154, 0.7499999999999973355 ) ;
#221 = UNCERTAINTY_MEASURE_WITH_UNIT (LENGTH_MEASURE( 1.000000000000000082E-05 ), #63, 'distance_accuracy_value', 'NONE');
#222 = APPROVAL_ROLE ( '' ) ;
#223 = DATE_AND_TIME ( #31, #155 ) ;
ENDSEC;
END-ISO-10303-21;
