ISO-10303-21;
HEADER;
FILE_DESCRIPTION (( 'STEP AP203' ),
    '1' );
FILE_NAME ('35817.step',
    '2021-12-06T12:59:16',
    ( '' ),
    ( '' ),
    'SwSTEP 2.0',
    'SolidWorks 2019',
    '' );
FILE_SCHEMA (( 'CONFIG_CONTROL_DESIGN' ));
ENDSEC;

DATA;
#1 = EDGE_LOOP ( 'NONE', ( #109 ) ) ;
#2 = ORIENTED_EDGE ( 'NONE', *, *, #17, .F. ) ;
#3 = APPROVAL_STATUS ( 'not_yet_approved' ) ;
#4 = AXIS2_PLACEMENT_3D ( 'NONE', #55, #22, #33 ) ;
#5 = ADVANCED_FACE ( 'NONE', ( #108, #100 ), #99, .T. ) ;
#6 = FACE_OUTER_BOUND ( 'NONE', #15, .T. ) ;
#7 = VERTEX_POINT ( 'NONE', #20 ) ;
#8 =( LENGTH_UNIT ( ) NAMED_UNIT ( * ) SI_UNIT ( .MILLI., .METRE. ) );
#9 = LOCAL_TIME ( 13, 59, 16.00000000000000000, #25 ) ;
#10 = CARTESIAN_POINT ( 'NONE',  ( 0.0000000000000000000, 40.00000000000000000, 0.0000000000000000000 ) ) ;
#11 = APPLICATION_CONTEXT ( 'configuration controlled 3d designs of mechanical parts and assemblies' ) ;
#12 = CARTESIAN_POINT ( 'NONE',  ( 0.0000000000000000000, 0.0000000000000000000, 0.0000000000000000000 ) ) ;
#13 = APPROVAL_PERSON_ORGANIZATION ( #85, #148, #69 ) ;
#14 = PRODUCT_DEFINITION ( 'UNKNOWN', '', #94, #68 ) ;
#15 = EDGE_LOOP ( 'NONE', ( #93 ) ) ;
#16 = LOCAL_TIME ( 13, 59, 16.00000000000000000, #36 ) ;
#17 = EDGE_CURVE ( 'NONE', #70, #70, #143, .T. ) ;
#18 = FACE_OUTER_BOUND ( 'NONE', #40, .T. ) ;
#19 = DIRECTION ( 'NONE',  ( 1.750845403988396290E-31, 1.000000000000000000, 4.928191693115929414E-17 ) ) ;
#20 = CARTESIAN_POINT ( 'NONE',  ( 2.793185071074507079E-15, 40.00000000000000000, 0.8000000000000000444 ) ) ;
#21 = DIRECTION ( 'NONE',  ( -3.491481338843133355E-15, 4.592425496802574219E-17, -1.000000000000000000 ) ) ;
#22 = DIRECTION ( 'NONE',  ( -3.491481338843133355E-15, 4.592425496802574219E-17, -1.000000000000000000 ) ) ;
#23 = CALENDAR_DATE ( 2021, 6, 12 ) ;
#24 = ADVANCED_FACE ( 'NONE', ( #59, #135 ), #137, .T. ) ;
#25 = COORDINATED_UNIVERSAL_TIME_OFFSET ( 1, 0, .AHEAD. ) ;
#26 = PERSON_AND_ORGANIZATION ( #119, #30 ) ;
#27 = PERSON_AND_ORGANIZATION ( #119, #30 ) ;
#28 = EDGE_LOOP ( 'NONE', ( #2 ) ) ;
#29 = CC_DESIGN_PERSON_AND_ORGANIZATION_ASSIGNMENT ( #26, #41, ( #94 ) ) ;
#30 = ORGANIZATION ( 'UNSPECIFIED', 'UNSPECIFIED', '' ) ;
#31 = PERSON_AND_ORGANIZATION ( #119, #30 ) ;
#32 = APPLICATION_PROTOCOL_DEFINITION ( 'international standard', 'config_control_design', 1994, #45 ) ;
#33 = DIRECTION ( 'NONE',  ( 1.603436792211359477E-31, 1.000000000000000000, 4.592425496802574219E-17 ) ) ;
#34 = PLANE ( 'NONE',  #82 ) ;
#35 = AXIS2_PLACEMENT_3D ( 'NONE', #44, #161, #86 ) ;
#36 = COORDINATED_UNIVERSAL_TIME_OFFSET ( 1, 0, .AHEAD. ) ;
#37 = CC_DESIGN_PERSON_AND_ORGANIZATION_ASSIGNMENT ( #151, #169, ( #140 ) ) ;
#38 = DATE_AND_TIME ( #23, #9 ) ;
#39 = ORIENTED_EDGE ( 'NONE', *, *, #141, .F. ) ;
#40 = EDGE_LOOP ( 'NONE', ( #54 ) ) ;
#41 = PERSON_AND_ORGANIZATION_ROLE ( 'design_supplier' ) ;
#42 = ADVANCED_FACE ( 'NONE', ( #6, #84 ), #166, .F. ) ;
#43 = LOCAL_TIME ( 13, 59, 16.00000000000000000, #167 ) ;
#44 = CARTESIAN_POINT ( 'NONE',  ( -6.413747168845438085E-30, 8.436148777472947676E-32, -1.836970198721029589E-15 ) ) ;
#45 = APPLICATION_CONTEXT ( 'configuration controlled 3d designs of mechanical parts and assemblies' ) ;
#46 = PRODUCT_DEFINITION_SHAPE ( 'NONE', 'NONE',  #14 ) ;
#47 = DIRECTION ( 'NONE',  ( 3.491481338843133355E-15, -4.592425496802574219E-17, 1.000000000000000000 ) ) ;
#48 = AXIS2_PLACEMENT_3D ( 'NONE', #80, #125, #67 ) ;
#49 = PRODUCT_RELATED_PRODUCT_CATEGORY ( 'detail', '', ( #147 ) ) ;
#50 = AXIS2_PLACEMENT_3D ( 'NONE', #53, #157, #19 ) ;
#51 = SHAPE_DEFINITION_REPRESENTATION ( #46, #113 ) ;
#52 = PERSON_AND_ORGANIZATION ( #119, #30 ) ;
#53 = CARTESIAN_POINT ( 'NONE',  ( 2.793185071074505107E-15, -3.673940397442057033E-17, 0.7999999999999994893 ) ) ;
#54 = ORIENTED_EDGE ( 'NONE', *, *, #131, .F. ) ;
#55 = CARTESIAN_POINT ( 'NONE',  ( 0.0000000000000000000, 0.0000000000000000000, 0.0000000000000000000 ) ) ;
#56 = APPROVAL ( #3, 'UNSPECIFIED' ) ;
#57 = CLOSED_SHELL ( 'NONE', ( #5, #24, #105, #42 ) ) ;
#58 = APPROVAL_PERSON_ORGANIZATION ( #52, #79, #96 ) ;
#59 = FACE_OUTER_BOUND ( 'NONE', #139, .T. ) ;
#60 = VERTEX_POINT ( 'NONE', #146 ) ;
#61 = DIRECTION ( 'NONE',  ( 1.603436792211359259E-31, 1.000000000000000000, 4.592425496802574219E-17 ) ) ;
#62 = CIRCLE ( 'NONE', #126, 11.00000000000000000 ) ;
#63 = APPROVAL_DATE_TIME ( #128, #148 ) ;
#64 = CALENDAR_DATE ( 2021, 6, 12 ) ;
#65 = APPROVAL_ROLE ( '' ) ;
#66 = CC_DESIGN_APPROVAL ( #148, ( #14 ) ) ;
#67 = DIRECTION ( 'NONE',  ( 1.603436792211359259E-31, 1.000000000000000000, 4.592425496802574219E-17 ) ) ;
#68 = DESIGN_CONTEXT ( 'detailed design', #11, 'design' ) ;
#69 = APPROVAL_ROLE ( '' ) ;
#70 = VERTEX_POINT ( 'NONE', #88 ) ;
#71 = CALENDAR_DATE ( 2021, 6, 12 ) ;
#72 = DIRECTION ( 'NONE',  ( 1.603436792211359259E-31, 1.000000000000000000, 4.592425496802574219E-17 ) ) ;
#73 = DIRECTION ( 'NONE',  ( -3.491481338843133355E-15, 4.592425496802574219E-17, -1.000000000000000000 ) ) ;
#74 = CARTESIAN_POINT ( 'NONE',  ( -1.763780471432495228E-30, 2.319940913805060611E-32, -5.051668046482831764E-16 ) ) ;
#75 = EDGE_CURVE ( 'NONE', #114, #114, #154, .T. ) ;
#76 = CARTESIAN_POINT ( 'NONE',  ( 2.793185071074504712E-15, 11.00000000000000000, 0.7999999999999993783 ) ) ;
#77 = CIRCLE ( 'NONE', #159, 40.00000000000000000 ) ;
#78 = CC_DESIGN_SECURITY_CLASSIFICATION ( #140, ( #94 ) ) ;
#79 = APPROVAL ( #153, 'UNSPECIFIED' ) ;
#80 = CARTESIAN_POINT ( 'NONE',  ( -2.324983348706471428E-30, 11.00000000000000000, -6.659016970363733542E-16 ) ) ;
#81 = DATE_TIME_ROLE ( 'creation_date' ) ;
#82 = AXIS2_PLACEMENT_3D ( 'NONE', #76, #47, #115 ) ;
#83 = CALENDAR_DATE ( 2021, 6, 12 ) ;
#84 = FACE_OUTER_BOUND ( 'NONE', #28, .T. ) ;
#85 = PERSON_AND_ORGANIZATION ( #119, #30 ) ;
#86 = DIRECTION ( 'NONE',  ( 1.603436792211359477E-31, 1.000000000000000000, 4.592425496802574219E-17 ) ) ;
#87 =( GEOMETRIC_REPRESENTATION_CONTEXT ( 3 ) GLOBAL_UNCERTAINTY_ASSIGNED_CONTEXT ( ( #129 ) ) GLOBAL_UNIT_ASSIGNED_CONTEXT ( ( #8, #145, #164 ) ) REPRESENTATION_CONTEXT ( 'NONE', 'WORKASPACE' ) );
#88 = CARTESIAN_POINT ( 'NONE',  ( 2.793185071074507079E-15, 11.00000000000000000, 0.8000000000000000444 ) ) ;
#89 = CC_DESIGN_APPROVAL ( #56, ( #94 ) ) ;
#90 = APPROVAL_DATE_TIME ( #38, #79 ) ;
#91 = APPROVAL_DATE_TIME ( #150, #56 ) ;
#92 = CC_DESIGN_PERSON_AND_ORGANIZATION_ASSIGNMENT ( #104, #116, ( #94 ) ) ;
#93 = ORIENTED_EDGE ( 'NONE', *, *, #141, .T. ) ;
#94 = PRODUCT_DEFINITION_FORMATION_WITH_SPECIFIED_SOURCE ( 'ANY', '', #147, .NOT_KNOWN. ) ;
#95 = CARTESIAN_POINT ( 'NONE',  ( 0.0000000000000000000, 0.0000000000000000000, 0.0000000000000000000 ) ) ;
#96 = APPROVAL_ROLE ( '' ) ;
#97 = CC_DESIGN_APPROVAL ( #79, ( #140 ) ) ;
#98 = DATE_TIME_ROLE ( 'classification_date' ) ;
#99 = PLANE ( 'NONE',  #48 ) ;
#100 = FACE_BOUND ( 'NONE', #155, .T. ) ;
#101 = LOCAL_TIME ( 13, 59, 16.00000000000000000, #165 ) ;
#102 = CC_DESIGN_DATE_AND_TIME_ASSIGNMENT ( #123, #98, ( #140 ) ) ;
#103 = MECHANICAL_CONTEXT ( 'NONE', #45, 'mechanical' ) ;
#104 = PERSON_AND_ORGANIZATION ( #119, #30 ) ;
#105 = ADVANCED_FACE ( 'NONE', ( #106, #18 ), #34, .T. ) ;
#106 = FACE_BOUND ( 'NONE', #1, .T. ) ;
#107 = EDGE_LOOP ( 'NONE', ( #124 ) ) ;
#108 = FACE_OUTER_BOUND ( 'NONE', #107, .T. ) ;
#109 = ORIENTED_EDGE ( 'NONE', *, *, #17, .T. ) ;
#110 = CC_DESIGN_PERSON_AND_ORGANIZATION_ASSIGNMENT ( #152, #163, ( #14 ) ) ;
#111 = APPROVAL_PERSON_ORGANIZATION ( #27, #56, #65 ) ;
#112 = CALENDAR_DATE ( 2021, 6, 12 ) ;
#113 = ADVANCED_BREP_SHAPE_REPRESENTATION ( '35817', ( #158, #118 ), #87 ) ;
#114 = VERTEX_POINT ( 'NONE', #10 ) ;
#115 = DIRECTION ( 'NONE',  ( -1.603436792211359259E-31, -1.000000000000000000, -4.592425496802574219E-17 ) ) ;
#116 = PERSON_AND_ORGANIZATION_ROLE ( 'creator' ) ;
#117 = DIRECTION ( 'NONE',  ( 1.637040452729150475E-31, 1.000000000000000000, 4.607859233063393845E-17 ) ) ;
#118 = AXIS2_PLACEMENT_3D ( 'NONE', #95, #133, #136 ) ;
#119 = PERSON ( 'UNSPECIFIED', 'UNSPECIFIED', 'UNSPECIFIED', ('UNSPECIFIED'), ('UNSPECIFIED'), ('UNSPECIFIED') ) ;
#120 = CC_DESIGN_PERSON_AND_ORGANIZATION_ASSIGNMENT ( #31, #142, ( #147 ) ) ;
#121 = DATE_AND_TIME ( #71, #101 ) ;
#122 = AXIS2_PLACEMENT_3D ( 'NONE', #12, #134, #72 ) ;
#123 = DATE_AND_TIME ( #64, #16 ) ;
#124 = ORIENTED_EDGE ( 'NONE', *, *, #75, .T. ) ;
#125 = DIRECTION ( 'NONE',  ( -3.491481338843133355E-15, 4.592425496802574219E-17, -1.000000000000000000 ) ) ;
#126 = AXIS2_PLACEMENT_3D ( 'NONE', #74, #21, #61 ) ;
#127 = APPROVAL_STATUS ( 'not_yet_approved' ) ;
#128 = DATE_AND_TIME ( #83, #43 ) ;
#129 = UNCERTAINTY_MEASURE_WITH_UNIT (LENGTH_MEASURE( 1.000000000000000082E-05 ), #8, 'distance_accuracy_value', 'NONE');
#130 = ORIENTED_EDGE ( 'NONE', *, *, #75, .F. ) ;
#131 = EDGE_CURVE ( 'NONE', #7, #7, #77, .T. ) ;
#132 = COORDINATED_UNIVERSAL_TIME_OFFSET ( 1, 0, .AHEAD. ) ;
#133 = DIRECTION ( 'NONE',  ( 0.0000000000000000000, 0.0000000000000000000, 1.000000000000000000 ) ) ;
#134 = DIRECTION ( 'NONE',  ( -3.491481338843133355E-15, 4.592425496802574219E-17, -1.000000000000000000 ) ) ;
#135 = FACE_OUTER_BOUND ( 'NONE', #156, .T. ) ;
#136 = DIRECTION ( 'NONE',  ( 1.000000000000000000, 0.0000000000000000000, 0.0000000000000000000 ) ) ;
#137 = CYLINDRICAL_SURFACE ( 'NONE', #4, 40.00000000000000000 ) ;
#138 = ORIENTED_EDGE ( 'NONE', *, *, #131, .T. ) ;
#139 = EDGE_LOOP ( 'NONE', ( #138 ) ) ;
#140 = SECURITY_CLASSIFICATION ( '', '', #168 ) ;
#141 = EDGE_CURVE ( 'NONE', #60, #60, #62, .T. ) ;
#142 = PERSON_AND_ORGANIZATION_ROLE ( 'design_owner' ) ;
#143 = CIRCLE ( 'NONE', #50, 11.00000000000000000 ) ;
#144 = APPLICATION_PROTOCOL_DEFINITION ( 'international standard', 'config_control_design', 1994, #11 ) ;
#145 =( NAMED_UNIT ( * ) PLANE_ANGLE_UNIT ( ) SI_UNIT ( $, .RADIAN. ) );
#146 = CARTESIAN_POINT ( 'NONE',  ( 0.0000000000000000000, 11.00000000000000000, 0.0000000000000000000 ) ) ;
#147 = PRODUCT ( '35817', '35817', '', ( #103 ) ) ;
#148 = APPROVAL ( #127, 'UNSPECIFIED' ) ;
#149 = CARTESIAN_POINT ( 'NONE',  ( 2.793185071074500373E-15, -3.673940397442051486E-17, 0.7999999999999981570 ) ) ;
#150 = DATE_AND_TIME ( #112, #162 ) ;
#151 = PERSON_AND_ORGANIZATION ( #119, #30 ) ;
#152 = PERSON_AND_ORGANIZATION ( #119, #30 ) ;
#153 = APPROVAL_STATUS ( 'not_yet_approved' ) ;
#154 = CIRCLE ( 'NONE', #35, 40.00000000000000000 ) ;
#155 = EDGE_LOOP ( 'NONE', ( #39 ) ) ;
#156 = EDGE_LOOP ( 'NONE', ( #130 ) ) ;
#157 = DIRECTION ( 'NONE',  ( -3.491481338843133355E-15, 4.592425496802574219E-17, -1.000000000000000000 ) ) ;
#158 = MANIFOLD_SOLID_BREP ( 'Corps-Déplacer/Copier1', #57 ) ;
#159 = AXIS2_PLACEMENT_3D ( 'NONE', #149, #73, #117 ) ;
#160 = CC_DESIGN_DATE_AND_TIME_ASSIGNMENT ( #121, #81, ( #14 ) ) ;
#161 = DIRECTION ( 'NONE',  ( -3.491481338843133355E-15, 4.592425496802574219E-17, -1.000000000000000000 ) ) ;
#162 = LOCAL_TIME ( 13, 59, 16.00000000000000000, #132 ) ;
#163 = PERSON_AND_ORGANIZATION_ROLE ( 'creator' ) ;
#164 =( NAMED_UNIT ( * ) SI_UNIT ( $, .STERADIAN. ) SOLID_ANGLE_UNIT ( ) );
#165 = COORDINATED_UNIVERSAL_TIME_OFFSET ( 1, 0, .AHEAD. ) ;
#166 = CYLINDRICAL_SURFACE ( 'NONE', #122, 11.00000000000000000 ) ;
#167 = COORDINATED_UNIVERSAL_TIME_OFFSET ( 1, 0, .AHEAD. ) ;
#168 = SECURITY_CLASSIFICATION_LEVEL ( 'unclassified' ) ;
#169 = PERSON_AND_ORGANIZATION_ROLE ( 'classification_officer' ) ;
ENDSEC;
END-ISO-10303-21;
