ISO-10303-21;
HEADER;
FILE_DESCRIPTION (( 'STEP AP203' ),
    '1' );
FILE_NAME ('35816.step',
    '2021-12-06T12:59:15',
    ( '' ),
    ( '' ),
    'SwSTEP 2.0',
    'SolidWorks 2019',
    '' );
FILE_SCHEMA (( 'CONFIG_CONTROL_DESIGN' ));
ENDSEC;

DATA;
#1 = DATE_AND_TIME ( #56, #150 ) ;
#2 = APPROVAL_STATUS ( 'not_yet_approved' ) ;
#3 = CC_DESIGN_APPROVAL ( #76, ( #122 ) ) ;
#4 = FACE_OUTER_BOUND ( 'NONE', #108, .T. ) ;
#5 = PRODUCT_DEFINITION_SHAPE ( 'NONE', 'NONE',  #99 ) ;
#6 = DIRECTION ( 'NONE',  ( 3.491481338843133355E-15, -3.673940397442058882E-17, 1.000000000000000000 ) ) ;
#7 = CARTESIAN_POINT ( 'NONE',  ( -6.413747168845438085E-30, 6.748919021978357046E-32, -1.836970198721029589E-15 ) ) ;
#8 = PERSON_AND_ORGANIZATION ( #39, #22 ) ;
#9 = COORDINATED_UNIVERSAL_TIME_OFFSET ( 1, 0, .AHEAD. ) ;
#10 = COORDINATED_UNIVERSAL_TIME_OFFSET ( 1, 0, .AHEAD. ) ;
#11 = APPROVAL_DATE_TIME ( #27, #76 ) ;
#12 = VERTEX_POINT ( 'NONE', #60 ) ;
#13 = DIRECTION ( 'NONE',  ( 1.400676323190716944E-31, 1.000000000000000000, 3.942553354492743284E-17 ) ) ;
#14 =( NAMED_UNIT ( * ) PLANE_ANGLE_UNIT ( ) SI_UNIT ( $, .RADIAN. ) );
#15 = ORIENTED_EDGE ( 'NONE', *, *, #49, .F. ) ;
#16 = SECURITY_CLASSIFICATION ( '', '', #57 ) ;
#17 = CARTESIAN_POINT ( 'NONE',  ( 3.491481338843127439E-15, -3.673940397442052719E-17, 0.9999999999999983347 ) ) ;
#18 = PERSON_AND_ORGANIZATION_ROLE ( 'classification_officer' ) ;
#19 = APPROVAL ( #126, 'UNSPECIFIED' ) ;
#20 = CARTESIAN_POINT ( 'NONE',  ( 0.0000000000000000000, 0.0000000000000000000, 0.0000000000000000000 ) ) ;
#21 = COORDINATED_UNIVERSAL_TIME_OFFSET ( 1, 0, .AHEAD. ) ;
#22 = ORGANIZATION ( 'UNSPECIFIED', 'UNSPECIFIED', '' ) ;
#23 = DIRECTION ( 'NONE',  ( 1.282749433769087232E-31, 1.000000000000000000, 3.673940397442058882E-17 ) ) ;
#24 = APPROVAL_PERSON_ORGANIZATION ( #59, #47, #45 ) ;
#25 = CARTESIAN_POINT ( 'NONE',  ( 3.491481338843130989E-15, 11.00000000000000000, 0.9999999999999993339 ) ) ;
#26 = ADVANCED_FACE ( 'NONE', ( #121, #52 ), #36, .F. ) ;
#27 = DATE_AND_TIME ( #86, #69 ) ;
#28 = DIRECTION ( 'NONE',  ( 0.0000000000000000000, 0.0000000000000000000, 1.000000000000000000 ) ) ;
#29 = PERSON_AND_ORGANIZATION_ROLE ( 'design_owner' ) ;
#30 = APPLICATION_PROTOCOL_DEFINITION ( 'international standard', 'config_control_design', 1994, #80 ) ;
#31 = CC_DESIGN_PERSON_AND_ORGANIZATION_ASSIGNMENT ( #38, #29, ( #156 ) ) ;
#32 = APPROVAL_PERSON_ORGANIZATION ( #85, #19, #41 ) ;
#33 = CLOSED_SHELL ( 'NONE', ( #153, #104, #65, #26 ) ) ;
#34 = ORIENTED_EDGE ( 'NONE', *, *, #49, .T. ) ;
#35 = DIRECTION ( 'NONE',  ( -3.491481338843133355E-15, 3.673940397442058882E-17, -1.000000000000000000 ) ) ;
#36 = CYLINDRICAL_SURFACE ( 'NONE', #44, 11.00000000000000000 ) ;
#37 = PERSON_AND_ORGANIZATION_ROLE ( 'creator' ) ;
#38 = PERSON_AND_ORGANIZATION ( #39, #22 ) ;
#39 = PERSON ( 'UNSPECIFIED', 'UNSPECIFIED', 'UNSPECIFIED', ('UNSPECIFIED'), ('UNSPECIFIED'), ('UNSPECIFIED') ) ;
#40 = ORIENTED_EDGE ( 'NONE', *, *, #111, .T. ) ;
#41 = APPROVAL_ROLE ( '' ) ;
#42 = APPROVAL_DATE_TIME ( #1, #19 ) ;
#43 = DIRECTION ( 'NONE',  ( -3.491481338843133355E-15, 3.673940397442058882E-17, -1.000000000000000000 ) ) ;
#44 = AXIS2_PLACEMENT_3D ( 'NONE', #137, #35, #97 ) ;
#45 = APPROVAL_ROLE ( '' ) ;
#46 = APPROVAL_PERSON_ORGANIZATION ( #8, #76, #91 ) ;
#47 = APPROVAL ( #2, 'UNSPECIFIED' ) ;
#48 = EDGE_CURVE ( 'NONE', #12, #12, #127, .T. ) ;
#49 = EDGE_CURVE ( 'NONE', #118, #118, #152, .T. ) ;
#50 = ORIENTED_EDGE ( 'NONE', *, *, #48, .T. ) ;
#51 = CIRCLE ( 'NONE', #113, 11.00000000000000000 ) ;
#52 = FACE_OUTER_BOUND ( 'NONE', #100, .T. ) ;
#53 = DIRECTION ( 'NONE',  ( -1.282749433769087232E-31, -1.000000000000000000, -3.673940397442058882E-17 ) ) ;
#54 = CC_DESIGN_PERSON_AND_ORGANIZATION_ASSIGNMENT ( #58, #37, ( #122 ) ) ;
#55 = PLANE ( 'NONE',  #94 ) ;
#56 = CALENDAR_DATE ( 2021, 6, 12 ) ;
#57 = SECURITY_CLASSIFICATION_LEVEL ( 'unclassified' ) ;
#58 = PERSON_AND_ORGANIZATION ( #39, #22 ) ;
#59 = PERSON_AND_ORGANIZATION ( #39, #22 ) ;
#60 = CARTESIAN_POINT ( 'NONE',  ( 3.491481338843133355E-15, 50.00000000000000000, 1.000000000000000000 ) ) ;
#61 = LOCAL_TIME ( 13, 59, 15.00000000000000000, #21 ) ;
#62 = DIRECTION ( 'NONE',  ( -3.491481338843133355E-15, 3.673940397442058882E-17, -1.000000000000000000 ) ) ;
#63 = AXIS2_PLACEMENT_3D ( 'NONE', #7, #107, #146 ) ;
#64 = CARTESIAN_POINT ( 'NONE',  ( 3.491481338843131778E-15, -3.673940397442057649E-17, 0.9999999999999995559 ) ) ;
#65 = ADVANCED_FACE ( 'NONE', ( #166, #67 ), #55, .T. ) ;
#66 = AXIS2_PLACEMENT_3D ( 'NONE', #17, #70, #124 ) ;
#67 = FACE_OUTER_BOUND ( 'NONE', #96, .T. ) ;
#68 = EDGE_LOOP ( 'NONE', ( #105 ) ) ;
#69 = LOCAL_TIME ( 13, 59, 15.00000000000000000, #89 ) ;
#70 = DIRECTION ( 'NONE',  ( -3.491481338843133355E-15, 3.673940397442058882E-17, -1.000000000000000000 ) ) ;
#71 = DATE_TIME_ROLE ( 'classification_date' ) ;
#72 = PERSON_AND_ORGANIZATION ( #39, #22 ) ;
#73 = APPROVAL_DATE_TIME ( #112, #47 ) ;
#74 = DIRECTION ( 'NONE',  ( 1.282749433769087232E-31, 1.000000000000000000, 3.673940397442058882E-17 ) ) ;
#75 = CC_DESIGN_APPROVAL ( #19, ( #16 ) ) ;
#76 = APPROVAL ( #129, 'UNSPECIFIED' ) ;
#77 = MANIFOLD_SOLID_BREP ( 'Corps-Déplacer/Copier1', #33 ) ;
#78 = CC_DESIGN_PERSON_AND_ORGANIZATION_ASSIGNMENT ( #109, #18, ( #16 ) ) ;
#79 = DIRECTION ( 'NONE',  ( 1.282749433769087232E-31, 1.000000000000000000, 3.673940397442058882E-17 ) ) ;
#80 = APPLICATION_CONTEXT ( 'configuration controlled 3d designs of mechanical parts and assemblies' ) ;
#81 = EDGE_LOOP ( 'NONE', ( #34 ) ) ;
#82 = EDGE_LOOP ( 'NONE', ( #40 ) ) ;
#83 = PRODUCT_RELATED_PRODUCT_CATEGORY ( 'detail', '', ( #156 ) ) ;
#84 = CARTESIAN_POINT ( 'NONE',  ( 0.0000000000000000000, 0.0000000000000000000, 0.0000000000000000000 ) ) ;
#85 = PERSON_AND_ORGANIZATION ( #39, #22 ) ;
#86 = CALENDAR_DATE ( 2021, 6, 12 ) ;
#87 = PERSON_AND_ORGANIZATION ( #39, #22 ) ;
#88 = UNCERTAINTY_MEASURE_WITH_UNIT (LENGTH_MEASURE( 1.000000000000000082E-05 ), #134, 'distance_accuracy_value', 'NONE');
#89 = COORDINATED_UNIVERSAL_TIME_OFFSET ( 1, 0, .AHEAD. ) ;
#90 = CC_DESIGN_PERSON_AND_ORGANIZATION_ASSIGNMENT ( #87, #161, ( #122 ) ) ;
#91 = APPROVAL_ROLE ( '' ) ;
#92 = CC_DESIGN_PERSON_AND_ORGANIZATION_ASSIGNMENT ( #72, #142, ( #99 ) ) ;
#93 = CARTESIAN_POINT ( 'NONE',  ( 3.491481338843133355E-15, 11.00000000000000000, 1.000000000000000000 ) ) ;
#94 = AXIS2_PLACEMENT_3D ( 'NONE', #25, #6, #53 ) ;
#95 = LOCAL_TIME ( 13, 59, 15.00000000000000000, #10 ) ;
#96 = EDGE_LOOP ( 'NONE', ( #154 ) ) ;
#97 = DIRECTION ( 'NONE',  ( 1.282749433769087232E-31, 1.000000000000000000, 3.673940397442058882E-17 ) ) ;
#98 = DATE_AND_TIME ( #143, #114 ) ;
#99 = PRODUCT_DEFINITION ( 'UNKNOWN', '', #122, #128 ) ;
#100 = EDGE_LOOP ( 'NONE', ( #168 ) ) ;
#101 = CALENDAR_DATE ( 2021, 6, 12 ) ;
#102 = DATE_AND_TIME ( #159, #95 ) ;
#103 =( GEOMETRIC_REPRESENTATION_CONTEXT ( 3 ) GLOBAL_UNCERTAINTY_ASSIGNED_CONTEXT ( ( #88 ) ) GLOBAL_UNIT_ASSIGNED_CONTEXT ( ( #134, #14, #151 ) ) REPRESENTATION_CONTEXT ( 'NONE', 'WORKASPACE' ) );
#104 = ADVANCED_FACE ( 'NONE', ( #119, #4 ), #136, .T. ) ;
#105 = ORIENTED_EDGE ( 'NONE', *, *, #130, .F. ) ;
#106 = AXIS2_PLACEMENT_3D ( 'NONE', #64, #165, #13 ) ;
#107 = DIRECTION ( 'NONE',  ( -3.491481338843133355E-15, 3.673940397442058882E-17, -1.000000000000000000 ) ) ;
#108 = EDGE_LOOP ( 'NONE', ( #15 ) ) ;
#109 = PERSON_AND_ORGANIZATION ( #39, #22 ) ;
#110 = CARTESIAN_POINT ( 'NONE',  ( -2.501361395849720321E-30, 11.00000000000000000, -7.164183775012014450E-16 ) ) ;
#111 = EDGE_CURVE ( 'NONE', #163, #163, #167, .T. ) ;
#112 = DATE_AND_TIME ( #101, #61 ) ;
#113 = AXIS2_PLACEMENT_3D ( 'NONE', #116, #62, #23 ) ;
#114 = LOCAL_TIME ( 13, 59, 15.00000000000000000, #138 ) ;
#115 = ADVANCED_BREP_SHAPE_REPRESENTATION ( '35816', ( #77, #158 ), #103 ) ;
#116 = CARTESIAN_POINT ( 'NONE',  ( -1.411024377145996042E-30, 1.484762184835238375E-32, -4.041334437186264524E-16 ) ) ;
#117 = CC_DESIGN_DATE_AND_TIME_ASSIGNMENT ( #102, #140, ( #99 ) ) ;
#118 = VERTEX_POINT ( 'NONE', #132 ) ;
#119 = FACE_OUTER_BOUND ( 'NONE', #155, .T. ) ;
#120 = CC_DESIGN_SECURITY_CLASSIFICATION ( #16, ( #122 ) ) ;
#121 = FACE_OUTER_BOUND ( 'NONE', #141, .T. ) ;
#122 = PRODUCT_DEFINITION_FORMATION_WITH_SPECIFIED_SOURCE ( 'ANY', '', #156, .NOT_KNOWN. ) ;
#123 = CARTESIAN_POINT ( 'NONE',  ( -1.710569414459005214E-46, 11.00000000000000000, 0.0000000000000000000 ) ) ;
#124 = DIRECTION ( 'NONE',  ( 1.232595164407830946E-31, 1.000000000000000000, 3.469446951953614189E-17 ) ) ;
#125 = APPLICATION_PROTOCOL_DEFINITION ( 'international standard', 'config_control_design', 1994, #135 ) ;
#126 = APPROVAL_STATUS ( 'not_yet_approved' ) ;
#127 = CIRCLE ( 'NONE', #66, 50.00000000000000000 ) ;
#128 = DESIGN_CONTEXT ( 'detailed design', #80, 'design' ) ;
#129 = APPROVAL_STATUS ( 'not_yet_approved' ) ;
#130 = EDGE_CURVE ( 'NONE', #147, #147, #51, .T. ) ;
#131 = AXIS2_PLACEMENT_3D ( 'NONE', #84, #148, #79 ) ;
#132 = CARTESIAN_POINT ( 'NONE',  ( -1.368455531567204171E-45, 50.00000000000000000, 0.0000000000000000000 ) ) ;
#133 = PLANE ( 'NONE',  #162 ) ;
#134 =( LENGTH_UNIT ( ) NAMED_UNIT ( * ) SI_UNIT ( .MILLI., .METRE. ) );
#135 = APPLICATION_CONTEXT ( 'configuration controlled 3d designs of mechanical parts and assemblies' ) ;
#136 = CYLINDRICAL_SURFACE ( 'NONE', #131, 50.00000000000000000 ) ;
#137 = CARTESIAN_POINT ( 'NONE',  ( 0.0000000000000000000, 0.0000000000000000000, 0.0000000000000000000 ) ) ;
#138 = COORDINATED_UNIVERSAL_TIME_OFFSET ( 1, 0, .AHEAD. ) ;
#139 = CC_DESIGN_APPROVAL ( #47, ( #99 ) ) ;
#140 = DATE_TIME_ROLE ( 'creation_date' ) ;
#141 = EDGE_LOOP ( 'NONE', ( #169 ) ) ;
#142 = PERSON_AND_ORGANIZATION_ROLE ( 'creator' ) ;
#143 = CALENDAR_DATE ( 2021, 6, 12 ) ;
#144 = CC_DESIGN_DATE_AND_TIME_ASSIGNMENT ( #98, #71, ( #16 ) ) ;
#145 = DIRECTION ( 'NONE',  ( 1.000000000000000000, 0.0000000000000000000, 0.0000000000000000000 ) ) ;
#146 = DIRECTION ( 'NONE',  ( 1.282749433769087232E-31, 1.000000000000000000, 3.673940397442058882E-17 ) ) ;
#147 = VERTEX_POINT ( 'NONE', #123 ) ;
#148 = DIRECTION ( 'NONE',  ( -3.491481338843133355E-15, 3.673940397442058882E-17, -1.000000000000000000 ) ) ;
#149 = FACE_BOUND ( 'NONE', #68, .T. ) ;
#150 = LOCAL_TIME ( 13, 59, 15.00000000000000000, #9 ) ;
#151 =( NAMED_UNIT ( * ) SI_UNIT ( $, .STERADIAN. ) SOLID_ANGLE_UNIT ( ) );
#152 = CIRCLE ( 'NONE', #63, 50.00000000000000000 ) ;
#153 = ADVANCED_FACE ( 'NONE', ( #164, #149 ), #133, .T. ) ;
#154 = ORIENTED_EDGE ( 'NONE', *, *, #48, .F. ) ;
#155 = EDGE_LOOP ( 'NONE', ( #50 ) ) ;
#156 = PRODUCT ( '35816', '35816', '', ( #160 ) ) ;
#157 = SHAPE_DEFINITION_REPRESENTATION ( #5, #115 ) ;
#158 = AXIS2_PLACEMENT_3D ( 'NONE', #20, #28, #145 ) ;
#159 = CALENDAR_DATE ( 2021, 6, 12 ) ;
#160 = MECHANICAL_CONTEXT ( 'NONE', #135, 'mechanical' ) ;
#161 = PERSON_AND_ORGANIZATION_ROLE ( 'design_supplier' ) ;
#162 = AXIS2_PLACEMENT_3D ( 'NONE', #110, #43, #74 ) ;
#163 = VERTEX_POINT ( 'NONE', #93 ) ;
#164 = FACE_OUTER_BOUND ( 'NONE', #81, .T. ) ;
#165 = DIRECTION ( 'NONE',  ( -3.491481338843133355E-15, 3.673940397442058882E-17, -1.000000000000000000 ) ) ;
#166 = FACE_BOUND ( 'NONE', #82, .T. ) ;
#167 = CIRCLE ( 'NONE', #106, 11.00000000000000000 ) ;
#168 = ORIENTED_EDGE ( 'NONE', *, *, #111, .F. ) ;
#169 = ORIENTED_EDGE ( 'NONE', *, *, #130, .T. ) ;
ENDSEC;
END-ISO-10303-21;
