ISO-10303-21;
HEADER;
FILE_DESCRIPTION (( 'STEP AP203' ),
    '1' );
FILE_NAME ('35735.step',
    '2021-10-06T11:26:24',
    ( '' ),
    ( '' ),
    'SwSTEP 2.0',
    'SolidWorks 2019',
    '' );
FILE_SCHEMA (( 'CONFIG_CONTROL_DESIGN' ));
ENDSEC;

DATA;
#1 = PERSON_AND_ORGANIZATION ( #187, #67 ) ;
#2 = DIRECTION ( 'NONE',  ( -3.491481338843133355E-15, 1.224646799147353207E-16, -1.000000000000000000 ) ) ;
#3 = ADVANCED_FACE ( 'NONE', ( #52, #96 ), #4, .T. ) ;
#4 = CYLINDRICAL_SURFACE ( 'NONE', #5, 2.749999999999998224 ) ;
#5 = AXIS2_PLACEMENT_3D ( 'NONE', #6, #79, #18 ) ;
#6 = CARTESIAN_POINT ( 'NONE',  ( 0.0000000000000000000, 0.0000000000000000000, 0.0000000000000000000 ) ) ;
#7 =( NAMED_UNIT ( * ) SI_UNIT ( $, .STERADIAN. ) SOLID_ANGLE_UNIT ( ) );
#8 = CIRCLE ( 'NONE', #122, 2.749999999999992450 ) ;
#9 = CC_DESIGN_APPROVAL ( #77, ( #133 ) ) ;
#10 = CC_DESIGN_DATE_AND_TIME_ASSIGNMENT ( #17, #51, ( #161 ) ) ;
#11 = APPROVAL_DATE_TIME ( #156, #77 ) ;
#12 = LOCAL_TIME ( 13, 26, 24.00000000000000000, #21 ) ;
#13 = APPROVAL_PERSON_ORGANIZATION ( #128, #163, #114 ) ;
#14 = PERSON_AND_ORGANIZATION ( #187, #67 ) ;
#15 = EDGE_CURVE ( 'NONE', #136, #136, #177, .T. ) ;
#16 =( GEOMETRIC_REPRESENTATION_CONTEXT ( 3 ) GLOBAL_UNCERTAINTY_ASSIGNED_CONTEXT ( ( #202 ) ) GLOBAL_UNIT_ASSIGNED_CONTEXT ( ( #103, #117, #7 ) ) REPRESENTATION_CONTEXT ( 'NONE', 'WORKASPACE' ) );
#17 = DATE_AND_TIME ( #178, #149 ) ;
#18 = DIRECTION ( 'NONE',  ( 4.275831445896958607E-31, 1.000000000000000000, 1.224646799147353207E-16 ) ) ;
#19 = PERSON_AND_ORGANIZATION ( #187, #67 ) ;
#20 = DIRECTION ( 'NONE',  ( -3.491481338843133355E-15, 1.224646799147353207E-16, -1.000000000000000000 ) ) ;
#21 = COORDINATED_UNIVERSAL_TIME_OFFSET ( 1, 0, .AHEAD. ) ;
#22 = DIRECTION ( 'NONE',  ( 0.0000000000000000000, 1.000000000000000000, 0.0000000000000000000 ) ) ;
#23 = ORIENTED_EDGE ( 'NONE', *, *, #48, .F. ) ;
#24 = AXIS2_PLACEMENT_3D ( 'NONE', #62, #201, #95 ) ;
#25 = DIRECTION ( 'NONE',  ( 0.0000000000000000000, 0.0000000000000000000, 1.000000000000000000 ) ) ;
#26 = APPROVAL_ROLE ( '' ) ;
#27 = MANIFOLD_SOLID_BREP ( 'Corps-Déplacer/Copier1[1]', #138 ) ;
#28 = EDGE_CURVE ( 'NONE', #120, #120, #107, .T. ) ;
#29 = CC_DESIGN_DATE_AND_TIME_ASSIGNMENT ( #184, #101, ( #133 ) ) ;
#30 = APPLICATION_PROTOCOL_DEFINITION ( 'international standard', 'config_control_design', 1994, #75 ) ;
#31 = ADVANCED_FACE ( 'NONE', ( #165 ), #176, .F. ) ;
#32 = EDGE_LOOP ( 'NONE', ( #153 ) ) ;
#33 = PERSON_AND_ORGANIZATION_ROLE ( 'creator' ) ;
#34 = AXIS2_PLACEMENT_3D ( 'NONE', #90, #2, #160 ) ;
#35 = SECURITY_CLASSIFICATION_LEVEL ( 'unclassified' ) ;
#36 = FACE_OUTER_BOUND ( 'NONE', #152, .T. ) ;
#37 = CALENDAR_DATE ( 2021, 6, 10 ) ;
#38 = CARTESIAN_POINT ( 'NONE',  ( 9.776147748760773395E-14, -3.429011037612589276E-15, 28.00000000000000000 ) ) ;
#39 = AXIS2_PLACEMENT_3D ( 'NONE', #38, #108, #144 ) ;
#40 = CARTESIAN_POINT ( 'NONE',  ( 9.776147748760773395E-14, 2.062169701160046274E-32, 28.00000000000000000 ) ) ;
#41 = CARTESIAN_POINT ( 'NONE',  ( 0.0000000000000000000, 0.0000000000000000000, 0.0000000000000000000 ) ) ;
#42 = MECHANICAL_CONTEXT ( 'NONE', #75, 'mechanical' ) ;
#43 = EDGE_LOOP ( 'NONE', ( #155 ) ) ;
#44 = PERSON_AND_ORGANIZATION ( #187, #67 ) ;
#45 = CC_DESIGN_APPROVAL ( #92, ( #124 ) ) ;
#46 = ADVANCED_BREP_SHAPE_REPRESENTATION ( '35735', ( #27, #159, #167 ), #16 ) ;
#47 = CC_DESIGN_SECURITY_CLASSIFICATION ( #161, ( #124 ) ) ;
#48 = EDGE_CURVE ( 'NONE', #53, #53, #8, .T. ) ;
#49 = AXIS2_PLACEMENT_3D ( 'NONE', #41, #182, #127 ) ;
#50 = CC_DESIGN_PERSON_AND_ORGANIZATION_ASSIGNMENT ( #19, #139, ( #161 ) ) ;
#51 = DATE_TIME_ROLE ( 'classification_date' ) ;
#52 = FACE_OUTER_BOUND ( 'NONE', #192, .T. ) ;
#53 = VERTEX_POINT ( 'NONE', #66 ) ;
#54 = PERSON_AND_ORGANIZATION ( #187, #67 ) ;
#55 = DATE_AND_TIME ( #199, #172 ) ;
#56 = APPLICATION_PROTOCOL_DEFINITION ( 'international standard', 'config_control_design', 1994, #87 ) ;
#57 = EDGE_LOOP ( 'NONE', ( #63 ) ) ;
#58 = DIRECTION ( 'NONE',  ( -4.275831445896958607E-31, -1.000000000000000000, -1.224646799147353207E-16 ) ) ;
#59 = APPROVAL_STATUS ( 'not_yet_approved' ) ;
#60 = DIRECTION ( 'NONE',  ( -3.491481338843133355E-15, 1.224646799147353207E-16, -1.000000000000000000 ) ) ;
#61 = CARTESIAN_POINT ( 'NONE',  ( 2.304377683636468267E-13, -8.082668874372532400E-15, 66.00000000000000000 ) ) ;
#62 = CARTESIAN_POINT ( 'NONE',  ( 9.776147748760773395E-14, -3.429011037612589276E-15, 28.00000000000000000 ) ) ;
#63 = ORIENTED_EDGE ( 'NONE', *, *, #48, .T. ) ;
#64 = CARTESIAN_POINT ( 'NONE',  ( 9.776147748760773395E-14, 2.749999999999992450, 28.00000000000000000 ) ) ;
#65 = AXIS2_PLACEMENT_3D ( 'NONE', #61, #20, #22 ) ;
#66 = CARTESIAN_POINT ( 'NONE',  ( 4.477287338171554836E-15, 2.749999999999992450, 1.282346059926259940 ) ) ;
#67 = ORGANIZATION ( 'UNSPECIFIED', 'UNSPECIFIED', '' ) ;
#68 = PRODUCT_DEFINITION_SHAPE ( 'NONE', 'NONE',  #133 ) ;
#69 = AXIS2_PLACEMENT_3D ( 'NONE', #142, #179, #78 ) ;
#70 = DIRECTION ( 'NONE',  ( 3.491481338843133355E-15, -1.224646799147353207E-16, 1.000000000000000000 ) ) ;
#71 = FACE_OUTER_BOUND ( 'NONE', #57, .T. ) ;
#72 = ADVANCED_FACE ( 'NONE', ( #74, #164 ), #183, .T. ) ;
#73 = CARTESIAN_POINT ( 'NONE',  ( 2.283428795603408836E-13, -8.009190066423689102E-15, 65.40000000000000568 ) ) ;
#74 = FACE_OUTER_BOUND ( 'NONE', #180, .T. ) ;
#75 = APPLICATION_CONTEXT ( 'configuration controlled 3d designs of mechanical parts and assemblies' ) ;
#76 = DIRECTION ( 'NONE',  ( 3.491481338843133355E-15, -1.224646799147353207E-16, 1.000000000000000000 ) ) ;
#77 = APPROVAL ( #84, 'UNSPECIFIED' ) ;
#78 = DIRECTION ( 'NONE',  ( -5.602705292762883542E-31, -1.000000000000000000, -1.577021341797101751E-16 ) ) ;
#79 = DIRECTION ( 'NONE',  ( -3.491481338843133355E-15, 1.224646799147353207E-16, -1.000000000000000000 ) ) ;
#80 = COORDINATED_UNIVERSAL_TIME_OFFSET ( 1, 0, .AHEAD. ) ;
#81 = CC_DESIGN_PERSON_AND_ORGANIZATION_ASSIGNMENT ( #118, #175, ( #105 ) ) ;
#82 = ADVANCED_FACE ( 'NONE', ( #112 ), #97, .F. ) ;
#83 = CARTESIAN_POINT ( 'NONE',  ( 0.0000000000000000000, 0.0000000000000000000, 0.0000000000000000000 ) ) ;
#84 = APPROVAL_STATUS ( 'not_yet_approved' ) ;
#85 = CARTESIAN_POINT ( 'NONE',  ( 2.304377683636468267E-13, 1.612241766361485433E-32, 66.00000000000000000 ) ) ;
#86 = ORIENTED_EDGE ( 'NONE', *, *, #28, .F. ) ;
#87 = APPLICATION_CONTEXT ( 'configuration controlled 3d designs of mechanical parts and assemblies' ) ;
#88 = CONICAL_SURFACE ( 'NONE', #34, 2.150000000000000799, 0.7853981633974450594 ) ;
#89 = APPROVAL_DATE_TIME ( #93, #163 ) ;
#90 = CARTESIAN_POINT ( 'NONE',  ( 2.304377683636468267E-13, -8.082668874372532400E-15, 66.00000000000000000 ) ) ;
#91 = AXIS2_PLACEMENT_3D ( 'NONE', #85, #60, #109 ) ;
#92 = APPROVAL ( #169, 'UNSPECIFIED' ) ;
#93 = DATE_AND_TIME ( #37, #12 ) ;
#94 = CARTESIAN_POINT ( 'NONE',  ( 4.477287338171553258E-15, -1.570420997687913525E-16, 1.282346059926259496 ) ) ;
#95 = DIRECTION ( 'NONE',  ( 0.0000000000000000000, 1.000000000000000000, 0.0000000000000000000 ) ) ;
#96 = FACE_OUTER_BOUND ( 'NONE', #137, .T. ) ;
#97 = PLANE ( 'NONE',  #189 ) ;
#98 = CARTESIAN_POINT ( 'NONE',  ( 2.304377683636468267E-13, 2.149999999999992806, 66.00000000000000000 ) ) ;
#99 = APPROVAL_PERSON_ORGANIZATION ( #44, #77, #131 ) ;
#100 = PERSON_AND_ORGANIZATION ( #187, #67 ) ;
#101 = DATE_TIME_ROLE ( 'creation_date' ) ;
#102 = PRODUCT_RELATED_PRODUCT_CATEGORY ( 'detail', '', ( #105 ) ) ;
#103 =( LENGTH_UNIT ( ) NAMED_UNIT ( * ) SI_UNIT ( .MILLI., .METRE. ) );
#104 = COORDINATED_UNIVERSAL_TIME_OFFSET ( 1, 0, .AHEAD. ) ;
#105 = PRODUCT ( '35735', '35735', '', ( #42 ) ) ;
#106 = ORIENTED_EDGE ( 'NONE', *, *, #28, .T. ) ;
#107 = CIRCLE ( 'NONE', #24, 2.749999999999996003 ) ;
#108 = DIRECTION ( 'NONE',  ( -3.491481338843133355E-15, 1.224646799147353207E-16, -1.000000000000000000 ) ) ;
#109 = DIRECTION ( 'NONE',  ( 4.275831445896958607E-31, 1.000000000000000000, 1.224646799147353207E-16 ) ) ;
#110 = EDGE_CURVE ( 'NONE', #171, #171, #146, .T. ) ;
#111 = LOCAL_TIME ( 13, 26, 24.00000000000000000, #116 ) ;
#112 = FACE_OUTER_BOUND ( 'NONE', #43, .T. ) ;
#113 = SHAPE_DEFINITION_REPRESENTATION ( #68, #46 ) ;
#114 = APPROVAL_ROLE ( '' ) ;
#115 = VERTEX_POINT ( 'NONE', #200 ) ;
#116 = COORDINATED_UNIVERSAL_TIME_OFFSET ( 1, 0, .AHEAD. ) ;
#117 =( NAMED_UNIT ( * ) PLANE_ANGLE_UNIT ( ) SI_UNIT ( $, .RADIAN. ) );
#118 = PERSON_AND_ORGANIZATION ( #187, #67 ) ;
#119 = AXIS2_PLACEMENT_3D ( 'NONE', #147, #76, #58 ) ;
#120 = VERTEX_POINT ( 'NONE', #64 ) ;
#121 = EDGE_CURVE ( 'NONE', #115, #115, #186, .T. ) ;
#122 = AXIS2_PLACEMENT_3D ( 'NONE', #94, #130, #198 ) ;
#123 = EDGE_LOOP ( 'NONE', ( #196 ) ) ;
#124 = PRODUCT_DEFINITION_FORMATION_WITH_SPECIFIED_SOURCE ( 'ANY', '', #105, .NOT_KNOWN. ) ;
#125 = FACE_OUTER_BOUND ( 'NONE', #32, .T. ) ;
#126 = CC_DESIGN_APPROVAL ( #163, ( #161 ) ) ;
#127 = DIRECTION ( 'NONE',  ( 4.275831445896958607E-31, 1.000000000000000000, 1.224646799147353207E-16 ) ) ;
#128 = PERSON_AND_ORGANIZATION ( #187, #67 ) ;
#129 = CONICAL_SURFACE ( 'NONE', #69, 2.749999999999992450, 1.134464013796309123 ) ;
#130 = DIRECTION ( 'NONE',  ( -3.491481338843133355E-15, 1.224646799147353207E-16, -1.000000000000000000 ) ) ;
#131 = APPROVAL_ROLE ( '' ) ;
#132 = DIRECTION ( 'NONE',  ( -3.491481338843133355E-15, 1.224646799147353207E-16, -1.000000000000000000 ) ) ;
#133 = PRODUCT_DEFINITION ( 'UNKNOWN', '', #124, #170 ) ;
#134 = APPROVAL_PERSON_ORGANIZATION ( #100, #92, #26 ) ;
#135 = PERSON_AND_ORGANIZATION_ROLE ( 'creator' ) ;
#136 = VERTEX_POINT ( 'NONE', #154 ) ;
#137 = EDGE_LOOP ( 'NONE', ( #174 ) ) ;
#138 = CLOSED_SHELL ( 'NONE', ( #82, #3, #197, #31 ) ) ;
#139 = PERSON_AND_ORGANIZATION_ROLE ( 'classification_officer' ) ;
#140 = PLANE ( 'NONE',  #119 ) ;
#141 = PERSON_AND_ORGANIZATION_ROLE ( 'design_supplier' ) ;
#142 = CARTESIAN_POINT ( 'NONE',  ( 4.477287338171553258E-15, -1.570420997687913525E-16, 1.282346059926259496 ) ) ;
#143 = DIRECTION ( 'NONE',  ( 0.0000000000000000000, 1.000000000000000000, 0.0000000000000000000 ) ) ;
#144 = DIRECTION ( 'NONE',  ( 0.0000000000000000000, 1.000000000000000000, 0.0000000000000000000 ) ) ;
#145 = COORDINATED_UNIVERSAL_TIME_OFFSET ( 1, 0, .AHEAD. ) ;
#146 = CIRCLE ( 'NONE', #65, 2.150000000000000799 ) ;
#147 = CARTESIAN_POINT ( 'NONE',  ( 9.776147748760773395E-14, 2.062169701160046274E-32, 28.00000000000000000 ) ) ;
#148 = CALENDAR_DATE ( 2021, 6, 10 ) ;
#149 = LOCAL_TIME ( 13, 26, 24.00000000000000000, #145 ) ;
#150 = CALENDAR_DATE ( 2021, 6, 10 ) ;
#151 = ADVANCED_FACE ( 'NONE', ( #36 ), #140, .T. ) ;
#152 = EDGE_LOOP ( 'NONE', ( #86 ) ) ;
#153 = ORIENTED_EDGE ( 'NONE', *, *, #15, .F. ) ;
#154 = CARTESIAN_POINT ( 'NONE',  ( 2.283428795603408836E-13, 2.749999999999992450, 65.40000000000000568 ) ) ;
#155 = ORIENTED_EDGE ( 'NONE', *, *, #121, .T. ) ;
#156 = DATE_AND_TIME ( #148, #193 ) ;
#157 = EDGE_LOOP ( 'NONE', ( #162 ) ) ;
#158 = AXIS2_PLACEMENT_3D ( 'NONE', #73, #132, #143 ) ;
#159 = MANIFOLD_SOLID_BREP ( 'Corps-Déplacer/Copier1[2]', #181 ) ;
#160 = DIRECTION ( 'NONE',  ( 0.0000000000000000000, 1.000000000000000000, 0.0000000000000000000 ) ) ;
#161 = SECURITY_CLASSIFICATION ( '', '', #35 ) ;
#162 = ORIENTED_EDGE ( 'NONE', *, *, #110, .T. ) ;
#163 = APPROVAL ( #59, 'UNSPECIFIED' ) ;
#164 = FACE_OUTER_BOUND ( 'NONE', #190, .T. ) ;
#165 = FACE_OUTER_BOUND ( 'NONE', #123, .T. ) ;
#166 = DIRECTION ( 'NONE',  ( -4.275831445896958607E-31, -1.000000000000000000, -1.224646799147353207E-16 ) ) ;
#167 = AXIS2_PLACEMENT_3D ( 'NONE', #83, #25, #173 ) ;
#168 = ORIENTED_EDGE ( 'NONE', *, *, #121, .F. ) ;
#169 = APPROVAL_STATUS ( 'not_yet_approved' ) ;
#170 = DESIGN_CONTEXT ( 'detailed design', #87, 'design' ) ;
#171 = VERTEX_POINT ( 'NONE', #98 ) ;
#172 = LOCAL_TIME ( 13, 26, 24.00000000000000000, #80 ) ;
#173 = DIRECTION ( 'NONE',  ( 1.000000000000000000, 0.0000000000000000000, 0.0000000000000000000 ) ) ;
#174 = ORIENTED_EDGE ( 'NONE', *, *, #15, .T. ) ;
#175 = PERSON_AND_ORGANIZATION_ROLE ( 'design_owner' ) ;
#176 = PLANE ( 'NONE',  #91 ) ;
#177 = CIRCLE ( 'NONE', #158, 2.750000000000000444 ) ;
#178 = CALENDAR_DATE ( 2021, 6, 10 ) ;
#179 = DIRECTION ( 'NONE',  ( 3.491481338843133355E-15, -1.224646799147353207E-16, 1.000000000000000000 ) ) ;
#180 = EDGE_LOOP ( 'NONE', ( #23 ) ) ;
#181 = CLOSED_SHELL ( 'NONE', ( #203, #72, #151 ) ) ;
#182 = DIRECTION ( 'NONE',  ( -3.491481338843133355E-15, 1.224646799147353207E-16, -1.000000000000000000 ) ) ;
#183 = CYLINDRICAL_SURFACE ( 'NONE', #49, 2.749999999999994227 ) ;
#184 = DATE_AND_TIME ( #150, #111 ) ;
#185 = CC_DESIGN_PERSON_AND_ORGANIZATION_ASSIGNMENT ( #1, #33, ( #124 ) ) ;
#186 = CIRCLE ( 'NONE', #39, 2.749999999999996003 ) ;
#187 = PERSON ( 'UNSPECIFIED', 'UNSPECIFIED', 'UNSPECIFIED', ('UNSPECIFIED'), ('UNSPECIFIED'), ('UNSPECIFIED') ) ;
#188 = CC_DESIGN_PERSON_AND_ORGANIZATION_ASSIGNMENT ( #54, #135, ( #133 ) ) ;
#189 = AXIS2_PLACEMENT_3D ( 'NONE', #40, #70, #166 ) ;
#190 = EDGE_LOOP ( 'NONE', ( #106 ) ) ;
#191 = CC_DESIGN_PERSON_AND_ORGANIZATION_ASSIGNMENT ( #14, #141, ( #124 ) ) ;
#192 = EDGE_LOOP ( 'NONE', ( #168 ) ) ;
#193 = LOCAL_TIME ( 13, 26, 24.00000000000000000, #104 ) ;
#194 = APPROVAL_DATE_TIME ( #55, #92 ) ;
#195 = FACE_BOUND ( 'NONE', #157, .T. ) ;
#196 = ORIENTED_EDGE ( 'NONE', *, *, #110, .F. ) ;
#197 = ADVANCED_FACE ( 'NONE', ( #125, #195 ), #88, .T. ) ;
#198 = DIRECTION ( 'NONE',  ( 5.602705292762883542E-31, 1.000000000000000000, 1.577021341797101751E-16 ) ) ;
#199 = CALENDAR_DATE ( 2021, 6, 10 ) ;
#200 = CARTESIAN_POINT ( 'NONE',  ( 9.776147748760773395E-14, 2.749999999999992450, 28.00000000000000000 ) ) ;
#201 = DIRECTION ( 'NONE',  ( -3.491481338843133355E-15, 1.224646799147353207E-16, -1.000000000000000000 ) ) ;
#202 = UNCERTAINTY_MEASURE_WITH_UNIT (LENGTH_MEASURE( 1.000000000000000082E-05 ), #103, 'distance_accuracy_value', 'NONE');
#203 = ADVANCED_FACE ( 'NONE', ( #71 ), #129, .T. ) ;
ENDSEC;
END-ISO-10303-21;
