ISO-10303-21;
HEADER;
FILE_DESCRIPTION (( 'STEP AP203' ),
    '1' );
FILE_NAME ('35734.step',
    '2021-11-12T06:57:05',
    ( '' ),
    ( '' ),
    'SwSTEP 2.0',
    'SolidWorks 2019',
    '' );
FILE_SCHEMA (( 'CONFIG_CONTROL_DESIGN' ));
ENDSEC;

DATA;
#1 = PRODUCT_DEFINITION_FORMATION_WITH_SPECIFIED_SOURCE ( 'ANY', '', #167, .NOT_KNOWN. ) ;
#2 = ORIENTED_EDGE ( 'NONE', *, *, #18, .F. ) ;
#3 = APPROVAL_STATUS ( 'not_yet_approved' ) ;
#4 = CALENDAR_DATE ( 2021, 12, 11 ) ;
#5 = PERSON_AND_ORGANIZATION ( #160, #240 ) ;
#6 = DATE_AND_TIME ( #79, #106 ) ;
#7 = CALENDAR_DATE ( 2021, 12, 11 ) ;
#8 = COORDINATED_UNIVERSAL_TIME_OFFSET ( 1, 0, .AHEAD. ) ;
#9 = FACE_OUTER_BOUND ( 'NONE', #186, .T. ) ;
#10 = PERSON_AND_ORGANIZATION_ROLE ( 'classification_officer' ) ;
#11 = FACE_BOUND ( 'NONE', #128, .T. ) ;
#12 = LOCAL_TIME ( 7, 57, 5.000000000000000000, #164 ) ;
#13 = FACE_OUTER_BOUND ( 'NONE', #31, .T. ) ;
#14 = DIRECTION ( 'NONE',  ( -4.275831445896958607E-31, -1.000000000000000000, -1.224646799147353207E-16 ) ) ;
#15 = CLOSED_SHELL ( 'NONE', ( #125, #29, #97, #38 ) ) ;
#16 = DIRECTION ( 'NONE',  ( 0.0000000000000000000, -1.000000000000000000, 0.0000000000000000000 ) ) ;
#17 = CARTESIAN_POINT ( 'NONE',  ( 2.094888803305879698E-14, -7.340385499090487324E-16, 5.999999999999999112 ) ) ;
#18 = EDGE_CURVE ( 'NONE', #218, #218, #72, .T. ) ;
#19 = FACE_OUTER_BOUND ( 'NONE', #221, .T. ) ;
#20 = ADVANCED_FACE ( 'NONE', ( #9 ), #195, .F. ) ;
#21 = PERSON_AND_ORGANIZATION_ROLE ( 'creator' ) ;
#22 = ORIENTED_EDGE ( 'NONE', *, *, #18, .T. ) ;
#23 = AXIS2_PLACEMENT_3D ( 'NONE', #41, #73, #181 ) ;
#24 = APPROVAL_PERSON_ORGANIZATION ( #33, #110, #117 ) ;
#25 = DATE_TIME_ROLE ( 'classification_date' ) ;
#26 = ADVANCED_BREP_SHAPE_REPRESENTATION ( '35734', ( #230, #155, #118 ), #232 ) ;
#27 = MECHANICAL_CONTEXT ( 'NONE', #148, 'mechanical' ) ;
#28 = EDGE_LOOP ( 'NONE', ( #223 ) ) ;
#29 = ADVANCED_FACE ( 'NONE', ( #151 ), #56, .T. ) ;
#30 = APPLICATION_CONTEXT ( 'configuration controlled 3d designs of mechanical parts and assemblies' ) ;
#31 = EDGE_LOOP ( 'NONE', ( #204 ) ) ;
#32 = DIRECTION ( 'NONE',  ( -3.491481338843133355E-15, 1.224646799147353207E-16, -1.000000000000000000 ) ) ;
#33 = PERSON_AND_ORGANIZATION ( #160, #240 ) ;
#34 = EDGE_CURVE ( 'NONE', #122, #122, #143, .T. ) ;
#35 = CARTESIAN_POINT ( 'NONE',  ( 3.491481338843133355E-16, 0.0000000000000000000, 0.1000000000000000056 ) ) ;
#36 = DIRECTION ( 'NONE',  ( 1.000000000000000000, 0.0000000000000000000, -3.494615930957742139E-15 ) ) ;
#37 = FACE_OUTER_BOUND ( 'NONE', #130, .T. ) ;
#38 = ADVANCED_FACE ( 'NONE', ( #233 ), #227, .T. ) ;
#39 = AXIS2_PLACEMENT_3D ( 'NONE', #108, #89, #216 ) ;
#40 = CARTESIAN_POINT ( 'NONE',  ( 1.299999999999999600, 0.0000000000000000000, -4.552478267652140590E-15 ) ) ;
#41 = CARTESIAN_POINT ( 'NONE',  ( 2.094888803305880013E-14, 2.249639673992785317E-32, 6.000000000000000000 ) ) ;
#42 = TOROIDAL_SURFACE ( 'NONE', #142, 9.400000000000000355, 8.000000000000000000 ) ;
#43 = LOCAL_TIME ( 7, 57, 5.000000000000000000, #8 ) ;
#44 = DIRECTION ( 'NONE',  ( 1.000000000000000000, 0.0000000000000000000, 0.0000000000000000000 ) ) ;
#45 = APPROVAL_STATUS ( 'not_yet_approved' ) ;
#46 = APPROVAL_ROLE ( '' ) ;
#47 = DATE_AND_TIME ( #7, #176 ) ;
#48 = AXIS2_PLACEMENT_3D ( 'NONE', #69, #66, #83 ) ;
#49 = CC_DESIGN_PERSON_AND_ORGANIZATION_ASSIGNMENT ( #115, #190, ( #1 ) ) ;
#50 = EDGE_LOOP ( 'NONE', ( #52 ) ) ;
#51 = ORIENTED_EDGE ( 'NONE', *, *, #222, .T. ) ;
#52 = ORIENTED_EDGE ( 'NONE', *, *, #71, .F. ) ;
#53 = CIRCLE ( 'NONE', #172, 3.000000000000001776 ) ;
#54 = COORDINATED_UNIVERSAL_TIME_OFFSET ( 1, 0, .AHEAD. ) ;
#55 = DATE_AND_TIME ( #131, #43 ) ;
#56 = PLANE ( 'NONE',  #196 ) ;
#57 = DIRECTION ( 'NONE',  ( -4.271469831664863477E-31, -1.000000000000000000, -1.223397583181748298E-16 ) ) ;
#58 = CYLINDRICAL_SURFACE ( 'NONE', #202, 1.400000000000000355 ) ;
#59 = CONICAL_SURFACE ( 'NONE', #236, 1.399999999999999911, 0.7853981633974506105 ) ;
#60 = PRODUCT_RELATED_PRODUCT_CATEGORY ( 'detail', '', ( #167 ) ) ;
#61 = CARTESIAN_POINT ( 'NONE',  ( 1.400000000000000355, 0.0000000000000000000, 0.09999999999999510669 ) ) ;
#62 = EDGE_LOOP ( 'NONE', ( #206 ) ) ;
#63 = EDGE_LOOP ( 'NONE', ( #51 ) ) ;
#64 = CALENDAR_DATE ( 2021, 12, 11 ) ;
#65 = AXIS2_PLACEMENT_3D ( 'NONE', #85, #32, #214 ) ;
#66 = DIRECTION ( 'NONE',  ( -3.491481338843133355E-15, 1.224646799147353207E-16, -1.000000000000000000 ) ) ;
#67 = DIRECTION ( 'NONE',  ( 0.0000000000000000000, 1.000000000000000000, 0.0000000000000000000 ) ) ;
#68 = DIRECTION ( 'NONE',  ( 3.491481338843133355E-15, -1.224646799147353207E-16, 1.000000000000000000 ) ) ;
#69 = CARTESIAN_POINT ( 'NONE',  ( -6.413747168845438786E-31, 2.249639673992786412E-32, -1.836970198721029934E-16 ) ) ;
#70 = VERTEX_POINT ( 'NONE', #124 ) ;
#71 = EDGE_CURVE ( 'NONE', #199, #199, #105, .T. ) ;
#72 = CIRCLE ( 'NONE', #139, 2.400000000000002132 ) ;
#73 = DIRECTION ( 'NONE',  ( 3.491481338843133355E-15, -1.224646799147353207E-16, 1.000000000000000000 ) ) ;
#74 = APPLICATION_PROTOCOL_DEFINITION ( 'international standard', 'config_control_design', 1994, #148 ) ;
#75 = AXIS2_PLACEMENT_3D ( 'NONE', #103, #175, #86 ) ;
#76 = PERSON_AND_ORGANIZATION ( #160, #240 ) ;
#77 = AXIS2_PLACEMENT_3D ( 'NONE', #220, #144, #16 ) ;
#78 = DATE_AND_TIME ( #4, #137 ) ;
#79 = CALENDAR_DATE ( 2021, 12, 11 ) ;
#80 = APPROVAL_DATE_TIME ( #6, #237 ) ;
#81 = CC_DESIGN_DATE_AND_TIME_ASSIGNMENT ( #47, #25, ( #203 ) ) ;
#82 = EDGE_LOOP ( 'NONE', ( #205 ) ) ;
#83 = DIRECTION ( 'NONE',  ( 4.275831445896958607E-31, 1.000000000000000000, 1.224646799147353207E-16 ) ) ;
#84 = DATE_AND_TIME ( #64, #12 ) ;
#85 = CARTESIAN_POINT ( 'NONE',  ( 1.745740669421566678E-13, 1.799711739194221740E-32, 50.00000000000000000 ) ) ;
#86 = DIRECTION ( 'NONE',  ( 0.0000000000000000000, 1.000000000000000000, 0.0000000000000000000 ) ) ;
#87 = FACE_OUTER_BOUND ( 'NONE', #28, .T. ) ;
#88 = APPROVAL_PERSON_ORGANIZATION ( #166, #237, #168 ) ;
#89 = DIRECTION ( 'NONE',  ( -3.491481338843133355E-15, 1.224646799147353207E-16, -1.000000000000000000 ) ) ;
#90 = CARTESIAN_POINT ( 'NONE',  ( 1.745740669421566678E-13, 2.399999999999995914, 50.00000000000000000 ) ) ;
#91 = CC_DESIGN_PERSON_AND_ORGANIZATION_ASSIGNMENT ( #224, #21, ( #178 ) ) ;
#92 = CARTESIAN_POINT ( 'NONE',  ( 3.770799845950584655E-14, 3.000000000000000444, 10.80000000000000071 ) ) ;
#93 = FACE_OUTER_BOUND ( 'NONE', #82, .T. ) ;
#94 = CIRCLE ( 'NONE', #111, 3.000000000000000888 ) ;
#95 = ORIENTED_EDGE ( 'NONE', *, *, #145, .T. ) ;
#96 = CC_DESIGN_PERSON_AND_ORGANIZATION_ASSIGNMENT ( #100, #10, ( #203 ) ) ;
#97 = ADVANCED_FACE ( 'NONE', ( #11, #191 ), #59, .T. ) ;
#98 = ORIENTED_EDGE ( 'NONE', *, *, #34, .F. ) ;
#99 = CARTESIAN_POINT ( 'NONE',  ( 2.094888803305880013E-14, 2.249639673992785317E-32, 6.000000000000000000 ) ) ;
#100 = PERSON_AND_ORGANIZATION ( #160, #240 ) ;
#101 = DIRECTION ( 'NONE',  ( 1.000000000000000000, 0.0000000000000000000, -3.494615930957742139E-15 ) ) ;
#102 = DIRECTION ( 'NONE',  ( 0.0000000000000000000, 1.000000000000000000, 0.0000000000000000000 ) ) ;
#103 = CARTESIAN_POINT ( 'NONE',  ( 1.724791781388508004E-13, -6.049755187787925154E-15, 49.39999999999999858 ) ) ;
#104 = APPROVAL ( #45, 'UNSPECIFIED' ) ;
#105 = CIRCLE ( 'NONE', #217, 1.399999999999999911 ) ;
#106 = LOCAL_TIME ( 7, 57, 5.000000000000000000, #129 ) ;
#107 = DIRECTION ( 'NONE',  ( 3.491481338843133355E-15, -1.223397583181748052E-16, 1.000000000000000000 ) ) ;
#108 = CARTESIAN_POINT ( 'NONE',  ( 0.0000000000000000000, 0.0000000000000000000, 0.0000000000000000000 ) ) ;
#109 = DIRECTION ( 'NONE',  ( 0.0000000000000000000, -1.000000000000000000, 0.0000000000000000000 ) ) ;
#110 = APPROVAL ( #226, 'UNSPECIFIED' ) ;
#111 = AXIS2_PLACEMENT_3D ( 'NONE', #119, #120, #102 ) ;
#112 = CC_DESIGN_APPROVAL ( #110, ( #1 ) ) ;
#113 = ORIENTED_EDGE ( 'NONE', *, *, #34, .T. ) ;
#114 = EDGE_LOOP ( 'NONE', ( #150 ) ) ;
#115 = PERSON_AND_ORGANIZATION ( #160, #240 ) ;
#116 = DIRECTION ( 'NONE',  ( 3.491481338843133355E-15, -0.0000000000000000000, 1.000000000000000000 ) ) ;
#117 = APPROVAL_ROLE ( '' ) ;
#118 = AXIS2_PLACEMENT_3D ( 'NONE', #161, #141, #44 ) ;
#119 = CARTESIAN_POINT ( 'NONE',  ( 3.770799845950584655E-14, -5.872308399272391437E-16, 10.80000000000000071 ) ) ;
#120 = DIRECTION ( 'NONE',  ( 3.491481338843133355E-15, -1.223397583181748052E-16, 1.000000000000000000 ) ) ;
#121 = EDGE_CURVE ( 'NONE', #197, #197, #53, .T. ) ;
#122 = VERTEX_POINT ( 'NONE', #40 ) ;
#123 = AXIS2_PLACEMENT_3D ( 'NONE', #17, #107, #109 ) ;
#124 = CARTESIAN_POINT ( 'NONE',  ( 2.094888803305879698E-14, -1.400000000000001465, 5.999999999999999112 ) ) ;
#125 = ADVANCED_FACE ( 'NONE', ( #135, #37 ), #58, .T. ) ;
#126 =( NAMED_UNIT ( * ) SI_UNIT ( $, .STERADIAN. ) SOLID_ANGLE_UNIT ( ) );
#127 = DIRECTION ( 'NONE',  ( -4.332516485465460243E-31, -1.000000000000000000, -1.223397583181748052E-16 ) ) ;
#128 = EDGE_LOOP ( 'NONE', ( #113 ) ) ;
#129 = COORDINATED_UNIVERSAL_TIME_OFFSET ( 1, 0, .AHEAD. ) ;
#130 = EDGE_LOOP ( 'NONE', ( #184 ) ) ;
#131 = CALENDAR_DATE ( 2021, 12, 11 ) ;
#132 = CARTESIAN_POINT ( 'NONE',  ( 1.745740669421566678E-13, -6.123233995736766085E-15, 50.00000000000000000 ) ) ;
#133 = DATE_TIME_ROLE ( 'creation_date' ) ;
#134 = CC_DESIGN_DATE_AND_TIME_ASSIGNMENT ( #84, #133, ( #178 ) ) ;
#135 = FACE_OUTER_BOUND ( 'NONE', #62, .T. ) ;
#136 = CARTESIAN_POINT ( 'NONE',  ( 0.0000000000000000000, 0.0000000000000000000, 0.0000000000000000000 ) ) ;
#137 = LOCAL_TIME ( 7, 57, 5.000000000000000000, #183 ) ;
#138 = DIRECTION ( 'NONE',  ( 3.491481338843133355E-15, -0.0000000000000000000, 1.000000000000000000 ) ) ;
#139 = AXIS2_PLACEMENT_3D ( 'NONE', #132, #211, #193 ) ;
#140 =( LENGTH_UNIT ( ) NAMED_UNIT ( * ) SI_UNIT ( .MILLI., .METRE. ) );
#141 = DIRECTION ( 'NONE',  ( 0.0000000000000000000, 0.0000000000000000000, 1.000000000000000000 ) ) ;
#142 = AXIS2_PLACEMENT_3D ( 'NONE', #177, #179, #127 ) ;
#143 = CIRCLE ( 'NONE', #182, 1.299999999999999600 ) ;
#144 = DIRECTION ( 'NONE',  ( 3.491481338843133355E-15, -1.223397583181748052E-16, 1.000000000000000000 ) ) ;
#145 = EDGE_CURVE ( 'NONE', #235, #235, #94, .T. ) ;
#146 = ORIENTED_EDGE ( 'NONE', *, *, #222, .F. ) ;
#147 = APPROVAL_DATE_TIME ( #78, #104 ) ;
#148 = APPLICATION_CONTEXT ( 'configuration controlled 3d designs of mechanical parts and assemblies' ) ;
#149 = SHAPE_DEFINITION_REPRESENTATION ( #187, #26 ) ;
#150 = ORIENTED_EDGE ( 'NONE', *, *, #174, .T. ) ;
#151 = FACE_OUTER_BOUND ( 'NONE', #114, .T. ) ;
#152 = ADVANCED_FACE ( 'NONE', ( #173, #13 ), #243, .T. ) ;
#153 = CIRCLE ( 'NONE', #77, 1.400000000000000799 ) ;
#154 = DIRECTION ( 'NONE',  ( 3.491481338843133355E-15, -0.0000000000000000000, 1.000000000000000000 ) ) ;
#155 = MANIFOLD_SOLID_BREP ( 'Corps-Déplacer/Copier1[2]', #15 ) ;
#156 = FACE_OUTER_BOUND ( 'NONE', #225, .T. ) ;
#157 = CC_DESIGN_PERSON_AND_ORGANIZATION_ASSIGNMENT ( #76, #200, ( #167 ) ) ;
#158 = DIRECTION ( 'NONE',  ( 1.000000000000000000, 0.0000000000000000000, -3.491481338843133355E-15 ) ) ;
#159 = CARTESIAN_POINT ( 'NONE',  ( 2.094888803305879698E-14, -1.400000000000001465, 5.999999999999999112 ) ) ;
#160 = PERSON ( 'UNSPECIFIED', 'UNSPECIFIED', 'UNSPECIFIED', ('UNSPECIFIED'), ('UNSPECIFIED'), ('UNSPECIFIED') ) ;
#161 = CARTESIAN_POINT ( 'NONE',  ( 0.0000000000000000000, 0.0000000000000000000, 0.0000000000000000000 ) ) ;
#162 = PLANE ( 'NONE',  #23 ) ;
#163 = CLOSED_SHELL ( 'NONE', ( #165, #152, #20, #234, #215 ) ) ;
#164 = COORDINATED_UNIVERSAL_TIME_OFFSET ( 1, 0, .AHEAD. ) ;
#165 = ADVANCED_FACE ( 'NONE', ( #87, #156 ), #231, .T. ) ;
#166 = PERSON_AND_ORGANIZATION ( #160, #240 ) ;
#167 = PRODUCT ( '35734', '35734', '', ( #27 ) ) ;
#168 = APPROVAL_ROLE ( '' ) ;
#169 = CARTESIAN_POINT ( 'NONE',  ( 3.491481338843133355E-16, 0.0000000000000000000, 0.1000000000000000056 ) ) ;
#170 = SECURITY_CLASSIFICATION_LEVEL ( 'unclassified' ) ;
#171 = CARTESIAN_POINT ( 'NONE',  ( 1.724791781388508004E-13, -6.049755187787925154E-15, 49.39999999999999858 ) ) ;
#172 = AXIS2_PLACEMENT_3D ( 'NONE', #171, #229, #67 ) ;
#173 = FACE_BOUND ( 'NONE', #185, .T. ) ;
#174 = EDGE_CURVE ( 'NONE', #70, #70, #208, .T. ) ;
#175 = DIRECTION ( 'NONE',  ( -3.491481338843133355E-15, 1.224646799147353207E-16, -1.000000000000000000 ) ) ;
#176 = LOCAL_TIME ( 7, 57, 5.000000000000000000, #54 ) ;
#177 = CARTESIAN_POINT ( 'NONE',  ( 2.094888803305879698E-14, 0.0000000000000000000, 5.999999999999999112 ) ) ;
#178 = PRODUCT_DEFINITION ( 'UNKNOWN', '', #1, #242 ) ;
#179 = DIRECTION ( 'NONE',  ( 3.491481338843133355E-15, -1.223397583181748052E-16, 1.000000000000000000 ) ) ;
#180 =( NAMED_UNIT ( * ) PLANE_ANGLE_UNIT ( ) SI_UNIT ( $, .RADIAN. ) );
#181 = DIRECTION ( 'NONE',  ( -4.275831445896958607E-31, -1.000000000000000000, -1.224646799147353207E-16 ) ) ;
#182 = AXIS2_PLACEMENT_3D ( 'NONE', #189, #116, #158 ) ;
#183 = COORDINATED_UNIVERSAL_TIME_OFFSET ( 1, 0, .AHEAD. ) ;
#184 = ORIENTED_EDGE ( 'NONE', *, *, #71, .T. ) ;
#185 = EDGE_LOOP ( 'NONE', ( #22 ) ) ;
#186 = EDGE_LOOP ( 'NONE', ( #2 ) ) ;
#187 = PRODUCT_DEFINITION_SHAPE ( 'NONE', 'NONE',  #178 ) ;
#188 = APPROVAL_PERSON_ORGANIZATION ( #5, #104, #46 ) ;
#189 = CARTESIAN_POINT ( 'NONE',  ( -4.731839565957903391E-32, 0.0000000000000000000, -1.355252715606880543E-17 ) ) ;
#190 = PERSON_AND_ORGANIZATION_ROLE ( 'design_supplier' ) ;
#191 = FACE_OUTER_BOUND ( 'NONE', #50, .T. ) ;
#192 = PERSON_AND_ORGANIZATION ( #160, #240 ) ;
#193 = DIRECTION ( 'NONE',  ( 0.0000000000000000000, 1.000000000000000000, 0.0000000000000000000 ) ) ;
#194 = CC_DESIGN_APPROVAL ( #104, ( #178 ) ) ;
#195 = PLANE ( 'NONE',  #65 ) ;
#196 = AXIS2_PLACEMENT_3D ( 'NONE', #99, #68, #14 ) ;
#197 = VERTEX_POINT ( 'NONE', #241 ) ;
#198 = UNCERTAINTY_MEASURE_WITH_UNIT (LENGTH_MEASURE( 1.000000000000000082E-05 ), #140, 'distance_accuracy_value', 'NONE');
#199 = VERTEX_POINT ( 'NONE', #61 ) ;
#200 = PERSON_AND_ORGANIZATION_ROLE ( 'design_owner' ) ;
#201 = APPLICATION_PROTOCOL_DEFINITION ( 'international standard', 'config_control_design', 1994, #30 ) ;
#202 = AXIS2_PLACEMENT_3D ( 'NONE', #136, #213, #57 ) ;
#203 = SECURITY_CLASSIFICATION ( '', '', #170 ) ;
#204 = ORIENTED_EDGE ( 'NONE', *, *, #121, .F. ) ;
#205 = ORIENTED_EDGE ( 'NONE', *, *, #145, .F. ) ;
#206 = ORIENTED_EDGE ( 'NONE', *, *, #174, .F. ) ;
#207 = EDGE_LOOP ( 'NONE', ( #98 ) ) ;
#208 = CIRCLE ( 'NONE', #123, 1.400000000000000799 ) ;
#209 = CC_DESIGN_APPROVAL ( #237, ( #203 ) ) ;
#210 = PERSON_AND_ORGANIZATION_ROLE ( 'creator' ) ;
#211 = DIRECTION ( 'NONE',  ( -3.491481338843133355E-15, 1.224646799147353207E-16, -1.000000000000000000 ) ) ;
#212 = CC_DESIGN_PERSON_AND_ORGANIZATION_ASSIGNMENT ( #192, #210, ( #1 ) ) ;
#213 = DIRECTION ( 'NONE',  ( 3.491481338843133355E-15, -1.223397583181748052E-16, 1.000000000000000000 ) ) ;
#214 = DIRECTION ( 'NONE',  ( 4.275831445896958607E-31, 1.000000000000000000, 1.224646799147353207E-16 ) ) ;
#215 = ADVANCED_FACE ( 'NONE', ( #19 ), #162, .F. ) ;
#216 = DIRECTION ( 'NONE',  ( 4.275831445896958607E-31, 1.000000000000000000, 1.224646799147353207E-16 ) ) ;
#217 = AXIS2_PLACEMENT_3D ( 'NONE', #169, #138, #36 ) ;
#218 = VERTEX_POINT ( 'NONE', #90 ) ;
#219 = VERTEX_POINT ( 'NONE', #159 ) ;
#220 = CARTESIAN_POINT ( 'NONE',  ( 2.094888803305879698E-14, -7.340385499090487324E-16, 5.999999999999999112 ) ) ;
#221 = EDGE_LOOP ( 'NONE', ( #146 ) ) ;
#222 = EDGE_CURVE ( 'NONE', #219, #219, #153, .T. ) ;
#223 = ORIENTED_EDGE ( 'NONE', *, *, #121, .T. ) ;
#224 = PERSON_AND_ORGANIZATION ( #160, #240 ) ;
#225 = EDGE_LOOP ( 'NONE', ( #95 ) ) ;
#226 = APPROVAL_STATUS ( 'not_yet_approved' ) ;
#227 = PLANE ( 'NONE',  #48 ) ;
#228 = APPROVAL_DATE_TIME ( #55, #110 ) ;
#229 = DIRECTION ( 'NONE',  ( -3.491481338843133355E-15, 1.224646799147353207E-16, -1.000000000000000000 ) ) ;
#230 = MANIFOLD_SOLID_BREP ( 'Corps-Déplacer/Copier1[1]', #163 ) ;
#231 = CYLINDRICAL_SURFACE ( 'NONE', #39, 3.000000000000000888 ) ;
#232 =( GEOMETRIC_REPRESENTATION_CONTEXT ( 3 ) GLOBAL_UNCERTAINTY_ASSIGNED_CONTEXT ( ( #198 ) ) GLOBAL_UNIT_ASSIGNED_CONTEXT ( ( #140, #180, #126 ) ) REPRESENTATION_CONTEXT ( 'NONE', 'WORKASPACE' ) );
#233 = FACE_OUTER_BOUND ( 'NONE', #207, .T. ) ;
#234 = ADVANCED_FACE ( 'NONE', ( #93, #239 ), #42, .F. ) ;
#235 = VERTEX_POINT ( 'NONE', #92 ) ;
#236 = AXIS2_PLACEMENT_3D ( 'NONE', #35, #154, #101 ) ;
#237 = APPROVAL ( #3, 'UNSPECIFIED' ) ;
#238 = CC_DESIGN_SECURITY_CLASSIFICATION ( #203, ( #1 ) ) ;
#239 = FACE_OUTER_BOUND ( 'NONE', #63, .T. ) ;
#240 = ORGANIZATION ( 'UNSPECIFIED', 'UNSPECIFIED', '' ) ;
#241 = CARTESIAN_POINT ( 'NONE',  ( 1.724791781388508004E-13, 2.999999999999995559, 49.39999999999999858 ) ) ;
#242 = DESIGN_CONTEXT ( 'detailed design', #30, 'design' ) ;
#243 = CONICAL_SURFACE ( 'NONE', #75, 3.000000000000001776, 0.7853981633974453924 ) ;
ENDSEC;
END-ISO-10303-21;
