ISO-10303-21;
HEADER;
FILE_DESCRIPTION (( 'STEP AP203' ),
    '1' );
FILE_NAME ('35730.step',
    '2021-10-06T11:26:22',
    ( '' ),
    ( '' ),
    'SwSTEP 2.0',
    'SolidWorks 2019',
    '' );
FILE_SCHEMA (( 'CONFIG_CONTROL_DESIGN' ));
ENDSEC;

DATA;
#1 = PERSON_AND_ORGANIZATION ( #22, #139 ) ;
#2 = COORDINATED_UNIVERSAL_TIME_OFFSET ( 1, 0, .AHEAD. ) ;
#3 = EDGE_LOOP ( 'NONE', ( #181 ) ) ;
#4 = APPROVAL_DATE_TIME ( #194, #8 ) ;
#5 = CC_DESIGN_PERSON_AND_ORGANIZATION_ASSIGNMENT ( #78, #31, ( #82 ) ) ;
#6 = EDGE_CURVE ( 'NONE', #24, #24, #108, .T. ) ;
#7 = CARTESIAN_POINT ( 'NONE',  ( 2.164718430082742680E-13, 1.424771793528753780E-32, 62.00000000000000000 ) ) ;
#8 = APPROVAL ( #176, 'UNSPECIFIED' ) ;
#9 = AXIS2_PLACEMENT_3D ( 'NONE', #96, #175, #71 ) ;
#10 = ORIENTED_EDGE ( 'NONE', *, *, #14, .F. ) ;
#11 = EDGE_LOOP ( 'NONE', ( #137 ) ) ;
#12 = PERSON_AND_ORGANIZATION_ROLE ( 'creator' ) ;
#13 = PRODUCT_DEFINITION_FORMATION_WITH_SPECIFIED_SOURCE ( 'ANY', '', #172, .NOT_KNOWN. ) ;
#14 = EDGE_CURVE ( 'NONE', #93, #93, #123, .T. ) ;
#15 = ORIENTED_EDGE ( 'NONE', *, *, #48, .T. ) ;
#16 = CALENDAR_DATE ( 2021, 6, 10 ) ;
#17 = CARTESIAN_POINT ( 'NONE',  ( 0.0000000000000000000, 0.0000000000000000000, 0.0000000000000000000 ) ) ;
#18 = EDGE_LOOP ( 'NONE', ( #38 ) ) ;
#19 = PLANE ( 'NONE',  #77 ) ;
#20 = FACE_OUTER_BOUND ( 'NONE', #3, .T. ) ;
#21 = CALENDAR_DATE ( 2021, 6, 10 ) ;
#22 = PERSON ( 'UNSPECIFIED', 'UNSPECIFIED', 'UNSPECIFIED', ('UNSPECIFIED'), ('UNSPECIFIED'), ('UNSPECIFIED') ) ;
#23 = ADVANCED_FACE ( 'NONE', ( #111 ), #19, .F. ) ;
#24 = VERTEX_POINT ( 'NONE', #107 ) ;
#25 = CC_DESIGN_APPROVAL ( #165, ( #13 ) ) ;
#26 = DIRECTION ( 'NONE',  ( 0.0000000000000000000, 1.000000000000000000, 0.0000000000000000000 ) ) ;
#27 = CARTESIAN_POINT ( 'NONE',  ( 2.164718430082742680E-13, 1.899999999999993250, 62.00000000000000000 ) ) ;
#28 = ADVANCED_FACE ( 'NONE', ( #118 ), #72, .T. ) ;
#29 = PLANE ( 'NONE',  #125 ) ;
#30 = CYLINDRICAL_SURFACE ( 'NONE', #174, 2.499999999999994227 ) ;
#31 = PERSON_AND_ORGANIZATION_ROLE ( 'classification_officer' ) ;
#32 = CC_DESIGN_PERSON_AND_ORGANIZATION_ASSIGNMENT ( #100, #64, ( #13 ) ) ;
#33 = LOCAL_TIME ( 13, 26, 22.00000000000000000, #144 ) ;
#34 = CALENDAR_DATE ( 2021, 6, 10 ) ;
#35 = AXIS2_PLACEMENT_3D ( 'NONE', #90, #197, #120 ) ;
#36 = FACE_OUTER_BOUND ( 'NONE', #199, .T. ) ;
#37 = DIRECTION ( 'NONE',  ( -3.491481338843133355E-15, 1.224646799147353207E-16, -1.000000000000000000 ) ) ;
#38 = ORIENTED_EDGE ( 'NONE', *, *, #152, .T. ) ;
#39 = CC_DESIGN_DATE_AND_TIME_ASSIGNMENT ( #131, #112, ( #82 ) ) ;
#40 = AXIS2_PLACEMENT_3D ( 'NONE', #203, #37, #104 ) ;
#41 =( LENGTH_UNIT ( ) NAMED_UNIT ( * ) SI_UNIT ( .MILLI., .METRE. ) );
#42 = DESIGN_CONTEXT ( 'detailed design', #58, 'design' ) ;
#43 = LOCAL_TIME ( 13, 26, 22.00000000000000000, #116 ) ;
#44 = DIRECTION ( 'NONE',  ( 4.275831445896958607E-31, 1.000000000000000000, 1.224646799147353207E-16 ) ) ;
#45 = ADVANCED_FACE ( 'NONE', ( #36 ), #56, .T. ) ;
#46 = AXIS2_PLACEMENT_3D ( 'NONE', #67, #180, #26 ) ;
#47 = COORDINATED_UNIVERSAL_TIME_OFFSET ( 1, 0, .AHEAD. ) ;
#48 = EDGE_CURVE ( 'NONE', #91, #91, #57, .T. ) ;
#49 = APPROVAL ( #117, 'UNSPECIFIED' ) ;
#50 = CARTESIAN_POINT ( 'NONE',  ( 9.077851480992146724E-14, 1.874699728327314620E-32, 26.00000000000000000 ) ) ;
#51 = DIRECTION ( 'NONE',  ( -4.275831445896958607E-31, -1.000000000000000000, -1.224646799147353207E-16 ) ) ;
#52 = DIRECTION ( 'NONE',  ( 3.491481338843133355E-15, -1.224646799147353207E-16, 1.000000000000000000 ) ) ;
#53 = CARTESIAN_POINT ( 'NONE',  ( 0.0000000000000000000, 0.0000000000000000000, 0.0000000000000000000 ) ) ;
#54 = AXIS2_PLACEMENT_3D ( 'NONE', #161, #189, #121 ) ;
#55 = MECHANICAL_CONTEXT ( 'NONE', #101, 'mechanical' ) ;
#56 = PLANE ( 'NONE',  #148 ) ;
#57 = CIRCLE ( 'NONE', #54, 1.900000000000000799 ) ;
#58 = APPLICATION_CONTEXT ( 'configuration controlled 3d designs of mechanical parts and assemblies' ) ;
#59 = PERSON_AND_ORGANIZATION ( #22, #139 ) ;
#60 = APPROVAL_PERSON_ORGANIZATION ( #1, #165, #191 ) ;
#61 = APPROVAL_PERSON_ORGANIZATION ( #59, #8, #62 ) ;
#62 = APPROVAL_ROLE ( '' ) ;
#63 = DATE_AND_TIME ( #113, #143 ) ;
#64 = PERSON_AND_ORGANIZATION_ROLE ( 'creator' ) ;
#65 = LOCAL_TIME ( 13, 26, 22.00000000000000000, #47 ) ;
#66 = APPROVAL_DATE_TIME ( #119, #49 ) ;
#67 = CARTESIAN_POINT ( 'NONE',  ( 2.143769542049683754E-13, -7.519331346764748510E-15, 61.39999999999999858 ) ) ;
#68 = ORIENTED_EDGE ( 'NONE', *, *, #152, .F. ) ;
#69 = DIRECTION ( 'NONE',  ( -3.491481338843133355E-15, 1.224646799147353207E-16, -1.000000000000000000 ) ) ;
#70 = CARTESIAN_POINT ( 'NONE',  ( 9.077851480992146724E-14, 2.499999999999992895, 26.00000000000000000 ) ) ;
#71 = DIRECTION ( 'NONE',  ( 0.0000000000000000000, 1.000000000000000000, 0.0000000000000000000 ) ) ;
#72 = CONICAL_SURFACE ( 'NONE', #192, 2.499999999999992895, 1.134464013796309123 ) ;
#73 = CARTESIAN_POINT ( 'NONE',  ( 9.077851480992146724E-14, 2.499999999999992895, 26.00000000000000000 ) ) ;
#74 = DIRECTION ( 'NONE',  ( 3.491481338843133355E-15, -1.224646799147353207E-16, 1.000000000000000000 ) ) ;
#75 = DIRECTION ( 'NONE',  ( -3.491481338843133355E-15, 1.224646799147353207E-16, -1.000000000000000000 ) ) ;
#76 = CC_DESIGN_PERSON_AND_ORGANIZATION_ASSIGNMENT ( #159, #190, ( #13 ) ) ;
#77 = AXIS2_PLACEMENT_3D ( 'NONE', #50, #94, #173 ) ;
#78 = PERSON_AND_ORGANIZATION ( #22, #139 ) ;
#79 = APPROVAL_PERSON_ORGANIZATION ( #83, #49, #115 ) ;
#80 = APPROVAL_DATE_TIME ( #63, #165 ) ;
#81 = ADVANCED_FACE ( 'NONE', ( #141, #134 ), #184, .T. ) ;
#82 = SECURITY_CLASSIFICATION ( '', '', #114 ) ;
#83 = PERSON_AND_ORGANIZATION ( #22, #139 ) ;
#84 = EDGE_CURVE ( 'NONE', #202, #202, #160, .T. ) ;
#85 = DIRECTION ( 'NONE',  ( 0.0000000000000000000, 1.000000000000000000, 0.0000000000000000000 ) ) ;
#86 = DIRECTION ( 'NONE',  ( 4.275831445896958607E-31, 1.000000000000000000, 1.224646799147353207E-16 ) ) ;
#87 = FACE_OUTER_BOUND ( 'NONE', #106, .T. ) ;
#88 = AXIS2_PLACEMENT_3D ( 'NONE', #126, #158, #85 ) ;
#89 = CC_DESIGN_PERSON_AND_ORGANIZATION_ASSIGNMENT ( #98, #12, ( #187 ) ) ;
#90 = CARTESIAN_POINT ( 'NONE',  ( 9.077851480992146724E-14, -3.184081677783118191E-15, 26.00000000000000000 ) ) ;
#91 = VERTEX_POINT ( 'NONE', #27 ) ;
#92 = ADVANCED_FACE ( 'NONE', ( #87 ), #29, .F. ) ;
#93 = VERTEX_POINT ( 'NONE', #156 ) ;
#94 = DIRECTION ( 'NONE',  ( 3.491481338843133355E-15, -1.224646799147353207E-16, 1.000000000000000000 ) ) ;
#95 = ORIENTED_EDGE ( 'NONE', *, *, #14, .T. ) ;
#96 = CARTESIAN_POINT ( 'NONE',  ( 9.077851480992146724E-14, -3.184081677783118191E-15, 26.00000000000000000 ) ) ;
#97 = CC_DESIGN_APPROVAL ( #8, ( #187 ) ) ;
#98 = PERSON_AND_ORGANIZATION ( #22, #139 ) ;
#99 = PRODUCT_DEFINITION_SHAPE ( 'NONE', 'NONE',  #187 ) ;
#100 = PERSON_AND_ORGANIZATION ( #22, #139 ) ;
#101 = APPLICATION_CONTEXT ( 'configuration controlled 3d designs of mechanical parts and assemblies' ) ;
#102 = CIRCLE ( 'NONE', #9, 2.499999999999996003 ) ;
#103 = EDGE_LOOP ( 'NONE', ( #10 ) ) ;
#104 = DIRECTION ( 'NONE',  ( 3.081487911019586123E-31, 1.000000000000000000, 8.673617379884060124E-17 ) ) ;
#105 = ORIENTED_EDGE ( 'NONE', *, *, #84, .F. ) ;
#106 = EDGE_LOOP ( 'NONE', ( #149 ) ) ;
#107 = CARTESIAN_POINT ( 'NONE',  ( 2.143769542049683754E-13, 2.499999999999992895, 61.39999999999999858 ) ) ;
#108 = CIRCLE ( 'NONE', #46, 2.500000000000000444 ) ;
#109 = CC_DESIGN_DATE_AND_TIME_ASSIGNMENT ( #146, #193, ( #187 ) ) ;
#110 = APPLICATION_PROTOCOL_DEFINITION ( 'international standard', 'config_control_design', 1994, #58 ) ;
#111 = FACE_OUTER_BOUND ( 'NONE', #18, .T. ) ;
#112 = DATE_TIME_ROLE ( 'classification_date' ) ;
#113 = CALENDAR_DATE ( 2021, 6, 10 ) ;
#114 = SECURITY_CLASSIFICATION_LEVEL ( 'unclassified' ) ;
#115 = APPROVAL_ROLE ( '' ) ;
#116 = COORDINATED_UNIVERSAL_TIME_OFFSET ( 1, 0, .AHEAD. ) ;
#117 = APPROVAL_STATUS ( 'not_yet_approved' ) ;
#118 = FACE_OUTER_BOUND ( 'NONE', #183, .T. ) ;
#119 = DATE_AND_TIME ( #21, #65 ) ;
#120 = DIRECTION ( 'NONE',  ( 0.0000000000000000000, 1.000000000000000000, 0.0000000000000000000 ) ) ;
#121 = DIRECTION ( 'NONE',  ( 0.0000000000000000000, 1.000000000000000000, 0.0000000000000000000 ) ) ;
#122 = FACE_OUTER_BOUND ( 'NONE', #11, .T. ) ;
#123 = CIRCLE ( 'NONE', #40, 2.499999999999992895 ) ;
#124 = FACE_OUTER_BOUND ( 'NONE', #163, .T. ) ;
#125 = AXIS2_PLACEMENT_3D ( 'NONE', #7, #69, #44 ) ;
#126 = CARTESIAN_POINT ( 'NONE',  ( 2.164718430082742680E-13, -7.592810154713590230E-15, 62.00000000000000000 ) ) ;
#127 = ADVANCED_FACE ( 'NONE', ( #200, #122 ), #30, .T. ) ;
#128 = APPROVAL_STATUS ( 'not_yet_approved' ) ;
#129 = AXIS2_PLACEMENT_3D ( 'NONE', #151, #75, #169 ) ;
#130 = COORDINATED_UNIVERSAL_TIME_OFFSET ( 1, 0, .AHEAD. ) ;
#131 = DATE_AND_TIME ( #147, #33 ) ;
#132 = CLOSED_SHELL ( 'NONE', ( #23, #196, #81, #92 ) ) ;
#133 = PRODUCT_RELATED_PRODUCT_CATEGORY ( 'detail', '', ( #172 ) ) ;
#134 = FACE_BOUND ( 'NONE', #150, .T. ) ;
#135 = CC_DESIGN_PERSON_AND_ORGANIZATION_ASSIGNMENT ( #171, #188, ( #172 ) ) ;
#136 = CARTESIAN_POINT ( 'NONE',  ( 4.070261216519594373E-15, -1.427655452443558176E-16, 1.165769145387508754 ) ) ;
#137 = ORIENTED_EDGE ( 'NONE', *, *, #84, .T. ) ;
#138 = CLOSED_SHELL ( 'NONE', ( #28, #127, #45 ) ) ;
#139 = ORGANIZATION ( 'UNSPECIFIED', 'UNSPECIFIED', '' ) ;
#140 =( NAMED_UNIT ( * ) PLANE_ANGLE_UNIT ( ) SI_UNIT ( $, .RADIAN. ) );
#141 = FACE_OUTER_BOUND ( 'NONE', #168, .T. ) ;
#142 = VERTEX_POINT ( 'NONE', #70 ) ;
#143 = LOCAL_TIME ( 13, 26, 22.00000000000000000, #2 ) ;
#144 = COORDINATED_UNIVERSAL_TIME_OFFSET ( 1, 0, .AHEAD. ) ;
#145 = DIRECTION ( 'NONE',  ( -3.491481338843133355E-15, 1.224646799147353207E-16, -1.000000000000000000 ) ) ;
#146 = DATE_AND_TIME ( #34, #43 ) ;
#147 = CALENDAR_DATE ( 2021, 6, 10 ) ;
#148 = AXIS2_PLACEMENT_3D ( 'NONE', #157, #52, #51 ) ;
#149 = ORIENTED_EDGE ( 'NONE', *, *, #48, .F. ) ;
#150 = EDGE_LOOP ( 'NONE', ( #15 ) ) ;
#151 = CARTESIAN_POINT ( 'NONE',  ( 0.0000000000000000000, 0.0000000000000000000, 0.0000000000000000000 ) ) ;
#152 = EDGE_CURVE ( 'NONE', #142, #142, #102, .T. ) ;
#153 = CYLINDRICAL_SURFACE ( 'NONE', #129, 2.499999999999998224 ) ;
#154 = LOCAL_TIME ( 13, 26, 22.00000000000000000, #130 ) ;
#155 =( GEOMETRIC_REPRESENTATION_CONTEXT ( 3 ) GLOBAL_UNCERTAINTY_ASSIGNED_CONTEXT ( ( #182 ) ) GLOBAL_UNIT_ASSIGNED_CONTEXT ( ( #41, #140, #167 ) ) REPRESENTATION_CONTEXT ( 'NONE', 'WORKASPACE' ) );
#156 = CARTESIAN_POINT ( 'NONE',  ( 4.070261216519595162E-15, 2.499999999999992895, 1.165769145387508976 ) ) ;
#157 = CARTESIAN_POINT ( 'NONE',  ( 9.077851480992146724E-14, 1.874699728327314620E-32, 26.00000000000000000 ) ) ;
#158 = DIRECTION ( 'NONE',  ( -3.491481338843133355E-15, 1.224646799147353207E-16, -1.000000000000000000 ) ) ;
#159 = PERSON_AND_ORGANIZATION ( #22, #139 ) ;
#160 = CIRCLE ( 'NONE', #35, 2.499999999999996003 ) ;
#161 = CARTESIAN_POINT ( 'NONE',  ( 2.164718430082742680E-13, -7.592810154713590230E-15, 62.00000000000000000 ) ) ;
#162 = MANIFOLD_SOLID_BREP ( 'Corps-Déplacer/Copier1[2]', #138 ) ;
#163 = EDGE_LOOP ( 'NONE', ( #68 ) ) ;
#164 = MANIFOLD_SOLID_BREP ( 'Corps-Déplacer/Copier1[1]', #132 ) ;
#165 = APPROVAL ( #128, 'UNSPECIFIED' ) ;
#166 = DIRECTION ( 'NONE',  ( -3.081487911019586123E-31, -1.000000000000000000, -8.673617379884060124E-17 ) ) ;
#167 =( NAMED_UNIT ( * ) SI_UNIT ( $, .STERADIAN. ) SOLID_ANGLE_UNIT ( ) );
#168 = EDGE_LOOP ( 'NONE', ( #179 ) ) ;
#169 = DIRECTION ( 'NONE',  ( 4.275831445896959482E-31, 1.000000000000000000, 1.224646799147353454E-16 ) ) ;
#170 = AXIS2_PLACEMENT_3D ( 'NONE', #53, #185, #186 ) ;
#171 = PERSON_AND_ORGANIZATION ( #22, #139 ) ;
#172 = PRODUCT ( '35730', '35730', '', ( #55 ) ) ;
#173 = DIRECTION ( 'NONE',  ( -4.275831445896958607E-31, -1.000000000000000000, -1.224646799147353207E-16 ) ) ;
#174 = AXIS2_PLACEMENT_3D ( 'NONE', #17, #145, #86 ) ;
#175 = DIRECTION ( 'NONE',  ( -3.491481338843133355E-15, 1.224646799147353207E-16, -1.000000000000000000 ) ) ;
#176 = APPROVAL_STATUS ( 'not_yet_approved' ) ;
#177 = CC_DESIGN_SECURITY_CLASSIFICATION ( #82, ( #13 ) ) ;
#178 = CC_DESIGN_APPROVAL ( #49, ( #82 ) ) ;
#179 = ORIENTED_EDGE ( 'NONE', *, *, #6, .F. ) ;
#180 = DIRECTION ( 'NONE',  ( -3.491481338843133355E-15, 1.224646799147353207E-16, -1.000000000000000000 ) ) ;
#181 = ORIENTED_EDGE ( 'NONE', *, *, #6, .T. ) ;
#182 = UNCERTAINTY_MEASURE_WITH_UNIT (LENGTH_MEASURE( 1.000000000000000082E-05 ), #41, 'distance_accuracy_value', 'NONE');
#183 = EDGE_LOOP ( 'NONE', ( #95 ) ) ;
#184 = CONICAL_SURFACE ( 'NONE', #88, 1.900000000000000799, 0.7853981633974452814 ) ;
#185 = DIRECTION ( 'NONE',  ( 0.0000000000000000000, 0.0000000000000000000, 1.000000000000000000 ) ) ;
#186 = DIRECTION ( 'NONE',  ( 1.000000000000000000, 0.0000000000000000000, 0.0000000000000000000 ) ) ;
#187 = PRODUCT_DEFINITION ( 'UNKNOWN', '', #13, #42 ) ;
#188 = PERSON_AND_ORGANIZATION_ROLE ( 'design_owner' ) ;
#189 = DIRECTION ( 'NONE',  ( -3.491481338843133355E-15, 1.224646799147353207E-16, -1.000000000000000000 ) ) ;
#190 = PERSON_AND_ORGANIZATION_ROLE ( 'design_supplier' ) ;
#191 = APPROVAL_ROLE ( '' ) ;
#192 = AXIS2_PLACEMENT_3D ( 'NONE', #136, #74, #166 ) ;
#193 = DATE_TIME_ROLE ( 'creation_date' ) ;
#194 = DATE_AND_TIME ( #16, #154 ) ;
#195 = ADVANCED_BREP_SHAPE_REPRESENTATION ( '35730', ( #164, #162, #170 ), #155 ) ;
#196 = ADVANCED_FACE ( 'NONE', ( #124, #20 ), #153, .T. ) ;
#197 = DIRECTION ( 'NONE',  ( -3.491481338843133355E-15, 1.224646799147353207E-16, -1.000000000000000000 ) ) ;
#198 = SHAPE_DEFINITION_REPRESENTATION ( #99, #195 ) ;
#199 = EDGE_LOOP ( 'NONE', ( #105 ) ) ;
#200 = FACE_OUTER_BOUND ( 'NONE', #103, .T. ) ;
#201 = APPLICATION_PROTOCOL_DEFINITION ( 'international standard', 'config_control_design', 1994, #101 ) ;
#202 = VERTEX_POINT ( 'NONE', #73 ) ;
#203 = CARTESIAN_POINT ( 'NONE',  ( 4.070261216519594373E-15, -1.427655452443558176E-16, 1.165769145387508754 ) ) ;
ENDSEC;
END-ISO-10303-21;
