ISO-10303-21;
HEADER;
FILE_DESCRIPTION (( 'STEP AP203' ),
    '1' );
FILE_NAME ('35729.step',
    '2021-10-06T11:26:21',
    ( '' ),
    ( '' ),
    'SwSTEP 2.0',
    'SolidWorks 2019',
    '' );
FILE_SCHEMA (( 'CONFIG_CONTROL_DESIGN' ));
ENDSEC;

DATA;
#1 = PERSON_AND_ORGANIZATION ( #82, #146 ) ;
#2 = CARTESIAN_POINT ( 'NONE',  ( 0.0000000000000000000, 0.0000000000000000000, 0.0000000000000000000 ) ) ;
#3 = APPLICATION_CONTEXT ( 'configuration controlled 3d designs of mechanical parts and assemblies' ) ;
#4 = DIRECTION ( 'NONE',  ( -3.491481338843133355E-15, 1.224646799147353207E-16, -1.000000000000000000 ) ) ;
#5 = EDGE_CURVE ( 'NONE', #183, #183, #95, .T. ) ;
#6 = AXIS2_PLACEMENT_3D ( 'NONE', #119, #59, #182 ) ;
#7 = PERSON_AND_ORGANIZATION ( #82, #146 ) ;
#8 = PERSON_AND_ORGANIZATION ( #82, #146 ) ;
#9 = EDGE_LOOP ( 'NONE', ( #111 ) ) ;
#10 = CIRCLE ( 'NONE', #60, 2.249999999999993339 ) ;
#11 = PERSON_AND_ORGANIZATION ( #82, #146 ) ;
#12 = APPROVAL_DATE_TIME ( #98, #186 ) ;
#13 = CARTESIAN_POINT ( 'NONE',  ( 0.0000000000000000000, 0.0000000000000000000, 0.0000000000000000000 ) ) ;
#14 = PERSON_AND_ORGANIZATION ( #82, #146 ) ;
#15 = DIRECTION ( 'NONE',  ( 4.275831445896958607E-31, 1.000000000000000000, 1.224646799147352961E-16 ) ) ;
#16 = LOCAL_TIME ( 13, 26, 21.00000000000000000, #29 ) ;
#17 = DIRECTION ( 'NONE',  ( -3.491481338843133355E-15, 1.224646799147353207E-16, -1.000000000000000000 ) ) ;
#18 = FACE_OUTER_BOUND ( 'NONE', #127, .T. ) ;
#19 = CARTESIAN_POINT ( 'NONE',  ( 8.379555213223520053E-14, 2.249999999999993339, 24.00000000000000000 ) ) ;
#20 = LOCAL_TIME ( 13, 26, 21.00000000000000000, #73 ) ;
#21 = CARTESIAN_POINT ( 'NONE',  ( 8.379555213223520053E-14, 2.249999999999993339, 24.00000000000000000 ) ) ;
#22 =( LENGTH_UNIT ( ) NAMED_UNIT ( * ) SI_UNIT ( .MILLI., .METRE. ) );
#23 = CC_DESIGN_PERSON_AND_ORGANIZATION_ASSIGNMENT ( #178, #55, ( #79 ) ) ;
#24 = ORIENTED_EDGE ( 'NONE', *, *, #5, .T. ) ;
#25 = APPROVAL_STATUS ( 'not_yet_approved' ) ;
#26 = DATE_TIME_ROLE ( 'classification_date' ) ;
#27 = DIRECTION ( 'NONE',  ( 0.0000000000000000000, 1.000000000000000000, 0.0000000000000000000 ) ) ;
#28 = PERSON_AND_ORGANIZATION ( #82, #146 ) ;
#29 = COORDINATED_UNIVERSAL_TIME_OFFSET ( 1, 0, .AHEAD. ) ;
#30 = PERSON_AND_ORGANIZATION ( #82, #146 ) ;
#31 = CARTESIAN_POINT ( 'NONE',  ( 2.025059176529017346E-13, -7.102951435054648059E-15, 58.00000000000000000 ) ) ;
#32 = CARTESIAN_POINT ( 'NONE',  ( 8.379555213223520053E-14, -2.939152317953647894E-15, 24.00000000000000000 ) ) ;
#33 = CARTESIAN_POINT ( 'NONE',  ( 2.025059176529017346E-13, -7.102951435054648059E-15, 58.00000000000000000 ) ) ;
#34 = FACE_OUTER_BOUND ( 'NONE', #140, .T. ) ;
#35 = CARTESIAN_POINT ( 'NONE',  ( 2.007601769834801742E-13, 2.249999999999993339, 57.50000000000000000 ) ) ;
#36 = EDGE_CURVE ( 'NONE', #154, #154, #52, .T. ) ;
#37 = PERSON_AND_ORGANIZATION_ROLE ( 'design_owner' ) ;
#38 = CIRCLE ( 'NONE', #151, 2.249999999999996447 ) ;
#39 = APPROVAL ( #96, 'UNSPECIFIED' ) ;
#40 = COORDINATED_UNIVERSAL_TIME_OFFSET ( 1, 0, .AHEAD. ) ;
#41 = CARTESIAN_POINT ( 'NONE',  ( 2.007601769834801742E-13, -7.041719095097280485E-15, 57.50000000000000000 ) ) ;
#42 = SECURITY_CLASSIFICATION ( '', '', #47 ) ;
#43 = ORIENTED_EDGE ( 'NONE', *, *, #5, .F. ) ;
#44 = ADVANCED_FACE ( 'NONE', ( #81 ), #77, .T. ) ;
#45 = DIRECTION ( 'NONE',  ( 4.275831445896958607E-31, 1.000000000000000000, 1.224646799147353207E-16 ) ) ;
#46 = ADVANCED_FACE ( 'NONE', ( #116, #150 ), #99, .T. ) ;
#47 = SECURITY_CLASSIFICATION_LEVEL ( 'unclassified' ) ;
#48 = PLANE ( 'NONE',  #142 ) ;
#49 = APPROVAL_PERSON_ORGANIZATION ( #14, #39, #80 ) ;
#50 = CARTESIAN_POINT ( 'NONE',  ( 3.663235094867633910E-15, -1.284889907199201841E-16, 1.049192230848757568 ) ) ;
#51 = CC_DESIGN_DATE_AND_TIME_ASSIGNMENT ( #132, #26, ( #42 ) ) ;
#52 = CIRCLE ( 'NONE', #162, 2.249999999999996447 ) ;
#53 = APPLICATION_PROTOCOL_DEFINITION ( 'international standard', 'config_control_design', 1994, #3 ) ;
#54 = CARTESIAN_POINT ( 'NONE',  ( 8.379555213223520053E-14, 1.687229755494582693E-32, 24.00000000000000000 ) ) ;
#55 = PERSON_AND_ORGANIZATION_ROLE ( 'design_supplier' ) ;
#56 = DATE_AND_TIME ( #180, #130 ) ;
#57 = ADVANCED_FACE ( 'NONE', ( #18 ), #165, .T. ) ;
#58 = CALENDAR_DATE ( 2021, 6, 10 ) ;
#59 = DIRECTION ( 'NONE',  ( 3.491481338843133355E-15, -1.224646799147353207E-16, 1.000000000000000000 ) ) ;
#60 = AXIS2_PLACEMENT_3D ( 'NONE', #50, #200, #201 ) ;
#61 = DIRECTION ( 'NONE',  ( -3.491481338843133355E-15, 1.224646799147353207E-16, -1.000000000000000000 ) ) ;
#62 = AXIS2_PLACEMENT_3D ( 'NONE', #13, #72, #15 ) ;
#63 = DIRECTION ( 'NONE',  ( 0.0000000000000000000, 0.0000000000000000000, 1.000000000000000000 ) ) ;
#64 = AXIS2_PLACEMENT_3D ( 'NONE', #41, #4, #27 ) ;
#65 = ORIENTED_EDGE ( 'NONE', *, *, #147, .F. ) ;
#66 = APPROVAL_ROLE ( '' ) ;
#67 = DIRECTION ( 'NONE',  ( 0.0000000000000000000, 1.000000000000000000, 0.0000000000000000000 ) ) ;
#68 = DATE_AND_TIME ( #143, #20 ) ;
#69 = CARTESIAN_POINT ( 'NONE',  ( 3.663235094867633910E-15, -1.284889907199201841E-16, 1.049192230848757568 ) ) ;
#70 = CC_DESIGN_APPROVAL ( #186, ( #42 ) ) ;
#71 = MECHANICAL_CONTEXT ( 'NONE', #3, 'mechanical' ) ;
#72 = DIRECTION ( 'NONE',  ( -3.491481338843133355E-15, 1.224646799147353207E-16, -1.000000000000000000 ) ) ;
#73 = COORDINATED_UNIVERSAL_TIME_OFFSET ( 1, 0, .AHEAD. ) ;
#74 = PLANE ( 'NONE',  #6 ) ;
#75 = EDGE_CURVE ( 'NONE', #169, #169, #10, .T. ) ;
#76 = APPLICATION_PROTOCOL_DEFINITION ( 'international standard', 'config_control_design', 1994, #179 ) ;
#77 = CONICAL_SURFACE ( 'NONE', #181, 2.249999999999993339, 1.134464013796309123 ) ;
#78 = ORIENTED_EDGE ( 'NONE', *, *, #107, .F. ) ;
#79 = PRODUCT_DEFINITION_FORMATION_WITH_SPECIFIED_SOURCE ( 'ANY', '', #190, .NOT_KNOWN. ) ;
#80 = APPROVAL_ROLE ( '' ) ;
#81 = FACE_OUTER_BOUND ( 'NONE', #9, .T. ) ;
#82 = PERSON ( 'UNSPECIFIED', 'UNSPECIFIED', 'UNSPECIFIED', ('UNSPECIFIED'), ('UNSPECIFIED'), ('UNSPECIFIED') ) ;
#83 = DATE_AND_TIME ( #160, #16 ) ;
#84 = SHAPE_DEFINITION_REPRESENTATION ( #89, #129 ) ;
#85 = DIRECTION ( 'NONE',  ( -3.423875456688429463E-31, -1.000000000000000000, -9.637352644315623593E-17 ) ) ;
#86 = DIRECTION ( 'NONE',  ( 0.0000000000000000000, 1.000000000000000000, 0.0000000000000000000 ) ) ;
#87 = CLOSED_SHELL ( 'NONE', ( #44, #46, #57 ) ) ;
#88 = DESIGN_CONTEXT ( 'detailed design', #179, 'design' ) ;
#89 = PRODUCT_DEFINITION_SHAPE ( 'NONE', 'NONE',  #133 ) ;
#90 = AXIS2_PLACEMENT_3D ( 'NONE', #136, #17, #45 ) ;
#91 = CARTESIAN_POINT ( 'NONE',  ( 3.663235094867634699E-15, 2.249999999999993339, 1.049192230848757790 ) ) ;
#92 = ORIENTED_EDGE ( 'NONE', *, *, #36, .F. ) ;
#93 = ADVANCED_FACE ( 'NONE', ( #121 ), #48, .F. ) ;
#94 = CARTESIAN_POINT ( 'NONE',  ( 8.379555213223520053E-14, -2.939152317953647894E-15, 24.00000000000000000 ) ) ;
#95 = CIRCLE ( 'NONE', #64, 2.250000000000000444 ) ;
#96 = APPROVAL_STATUS ( 'not_yet_approved' ) ;
#97 = LOCAL_TIME ( 13, 26, 21.00000000000000000, #128 ) ;
#98 = DATE_AND_TIME ( #135, #108 ) ;
#99 = CYLINDRICAL_SURFACE ( 'NONE', #90, 2.249999999999995115 ) ;
#100 = DIRECTION ( 'NONE',  ( -3.491481338843133355E-15, 1.224646799147353207E-16, -1.000000000000000000 ) ) ;
#101 = AXIS2_PLACEMENT_3D ( 'NONE', #33, #153, #86 ) ;
#102 = DIRECTION ( 'NONE',  ( -3.491481338843133355E-15, 1.224646799147353207E-16, -1.000000000000000000 ) ) ;
#103 = VERTEX_POINT ( 'NONE', #105 ) ;
#104 = APPROVAL_PERSON_ORGANIZATION ( #11, #186, #66 ) ;
#105 = CARTESIAN_POINT ( 'NONE',  ( 2.025059176529017346E-13, 1.749999999999993339, 58.00000000000000000 ) ) ;
#106 = ORIENTED_EDGE ( 'NONE', *, *, #75, .F. ) ;
#107 = EDGE_CURVE ( 'NONE', #103, #103, #155, .T. ) ;
#108 = LOCAL_TIME ( 13, 26, 21.00000000000000000, #195 ) ;
#109 = ORIENTED_EDGE ( 'NONE', *, *, #107, .T. ) ;
#110 = APPROVAL_ROLE ( '' ) ;
#111 = ORIENTED_EDGE ( 'NONE', *, *, #75, .T. ) ;
#112 = DIRECTION ( 'NONE',  ( -4.275831445896958607E-31, -1.000000000000000000, -1.224646799147353207E-16 ) ) ;
#113 = EDGE_LOOP ( 'NONE', ( #193 ) ) ;
#114 =( NAMED_UNIT ( * ) PLANE_ANGLE_UNIT ( ) SI_UNIT ( $, .RADIAN. ) );
#115 = DATE_TIME_ROLE ( 'creation_date' ) ;
#116 = FACE_OUTER_BOUND ( 'NONE', #125, .T. ) ;
#117 = CC_DESIGN_APPROVAL ( #152, ( #133 ) ) ;
#118 = FACE_OUTER_BOUND ( 'NONE', #194, .T. ) ;
#119 = CARTESIAN_POINT ( 'NONE',  ( 8.379555213223520053E-14, 1.687229755494582693E-32, 24.00000000000000000 ) ) ;
#120 = FACE_BOUND ( 'NONE', #196, .T. ) ;
#121 = FACE_OUTER_BOUND ( 'NONE', #124, .T. ) ;
#122 = AXIS2_PLACEMENT_3D ( 'NONE', #31, #61, #167 ) ;
#123 = DIRECTION ( 'NONE',  ( 1.000000000000000000, 0.0000000000000000000, 0.0000000000000000000 ) ) ;
#124 = EDGE_LOOP ( 'NONE', ( #78 ) ) ;
#125 = EDGE_LOOP ( 'NONE', ( #106 ) ) ;
#126 = PERSON_AND_ORGANIZATION_ROLE ( 'classification_officer' ) ;
#127 = EDGE_LOOP ( 'NONE', ( #92 ) ) ;
#128 = COORDINATED_UNIVERSAL_TIME_OFFSET ( 1, 0, .AHEAD. ) ;
#129 = ADVANCED_BREP_SHAPE_REPRESENTATION ( '35729', ( #175, #172, #157 ), #166 ) ;
#130 = LOCAL_TIME ( 13, 26, 21.00000000000000000, #40 ) ;
#131 = PERSON_AND_ORGANIZATION_ROLE ( 'creator' ) ;
#132 = DATE_AND_TIME ( #58, #97 ) ;
#133 = PRODUCT_DEFINITION ( 'UNKNOWN', '', #79, #88 ) ;
#134 = FACE_OUTER_BOUND ( 'NONE', #141, .T. ) ;
#135 = CALENDAR_DATE ( 2021, 6, 10 ) ;
#136 = CARTESIAN_POINT ( 'NONE',  ( 0.0000000000000000000, 0.0000000000000000000, 0.0000000000000000000 ) ) ;
#137 = DIRECTION ( 'NONE',  ( 3.491481338843133355E-15, -1.224646799147353207E-16, 1.000000000000000000 ) ) ;
#138 = CC_DESIGN_PERSON_AND_ORGANIZATION_ASSIGNMENT ( #7, #131, ( #79 ) ) ;
#139 = APPROVAL_STATUS ( 'not_yet_approved' ) ;
#140 = EDGE_LOOP ( 'NONE', ( #43 ) ) ;
#141 = EDGE_LOOP ( 'NONE', ( #173 ) ) ;
#142 = AXIS2_PLACEMENT_3D ( 'NONE', #184, #102, #199 ) ;
#143 = CALENDAR_DATE ( 2021, 6, 10 ) ;
#144 = DIRECTION ( 'NONE',  ( -3.491481338843133355E-15, 1.224646799147353207E-16, -1.000000000000000000 ) ) ;
#145 = APPROVAL_DATE_TIME ( #68, #39 ) ;
#146 = ORGANIZATION ( 'UNSPECIFIED', 'UNSPECIFIED', '' ) ;
#147 = EDGE_CURVE ( 'NONE', #159, #159, #38, .T. ) ;
#148 = CC_DESIGN_PERSON_AND_ORGANIZATION_ASSIGNMENT ( #8, #126, ( #42 ) ) ;
#149 = DIRECTION ( 'NONE',  ( 0.0000000000000000000, 1.000000000000000000, 0.0000000000000000000 ) ) ;
#150 = FACE_OUTER_BOUND ( 'NONE', #113, .T. ) ;
#151 = AXIS2_PLACEMENT_3D ( 'NONE', #32, #100, #149 ) ;
#152 = APPROVAL ( #139, 'UNSPECIFIED' ) ;
#153 = DIRECTION ( 'NONE',  ( -3.491481338843133355E-15, 1.224646799147353207E-16, -1.000000000000000000 ) ) ;
#154 = VERTEX_POINT ( 'NONE', #19 ) ;
#155 = CIRCLE ( 'NONE', #122, 1.750000000000000444 ) ;
#156 = CC_DESIGN_PERSON_AND_ORGANIZATION_ASSIGNMENT ( #28, #164, ( #133 ) ) ;
#157 = AXIS2_PLACEMENT_3D ( 'NONE', #2, #63, #123 ) ;
#158 = EDGE_LOOP ( 'NONE', ( #24 ) ) ;
#159 = VERTEX_POINT ( 'NONE', #21 ) ;
#160 = CALENDAR_DATE ( 2021, 6, 10 ) ;
#161 = ADVANCED_FACE ( 'NONE', ( #34, #120 ), #197, .T. ) ;
#162 = AXIS2_PLACEMENT_3D ( 'NONE', #94, #144, #67 ) ;
#163 = CYLINDRICAL_SURFACE ( 'NONE', #62, 2.249999999999998668 ) ;
#164 = PERSON_AND_ORGANIZATION_ROLE ( 'creator' ) ;
#165 = PLANE ( 'NONE',  #177 ) ;
#166 =( GEOMETRIC_REPRESENTATION_CONTEXT ( 3 ) GLOBAL_UNCERTAINTY_ASSIGNED_CONTEXT ( ( #188 ) ) GLOBAL_UNIT_ASSIGNED_CONTEXT ( ( #22, #114, #192 ) ) REPRESENTATION_CONTEXT ( 'NONE', 'WORKASPACE' ) );
#167 = DIRECTION ( 'NONE',  ( 0.0000000000000000000, 1.000000000000000000, 0.0000000000000000000 ) ) ;
#168 = CC_DESIGN_APPROVAL ( #39, ( #79 ) ) ;
#169 = VERTEX_POINT ( 'NONE', #91 ) ;
#170 = CC_DESIGN_PERSON_AND_ORGANIZATION_ASSIGNMENT ( #30, #37, ( #190 ) ) ;
#171 = CC_DESIGN_SECURITY_CLASSIFICATION ( #42, ( #79 ) ) ;
#172 = MANIFOLD_SOLID_BREP ( 'Corps-Déplacer/Copier1[2]', #87 ) ;
#173 = ORIENTED_EDGE ( 'NONE', *, *, #147, .T. ) ;
#174 = PRODUCT_RELATED_PRODUCT_CATEGORY ( 'detail', '', ( #190 ) ) ;
#175 = MANIFOLD_SOLID_BREP ( 'Corps-Déplacer/Copier1[1]', #189 ) ;
#176 = FACE_OUTER_BOUND ( 'NONE', #158, .T. ) ;
#177 = AXIS2_PLACEMENT_3D ( 'NONE', #54, #137, #112 ) ;
#178 = PERSON_AND_ORGANIZATION ( #82, #146 ) ;
#179 = APPLICATION_CONTEXT ( 'configuration controlled 3d designs of mechanical parts and assemblies' ) ;
#180 = CALENDAR_DATE ( 2021, 6, 10 ) ;
#181 = AXIS2_PLACEMENT_3D ( 'NONE', #69, #191, #85 ) ;
#182 = DIRECTION ( 'NONE',  ( -4.275831445896958607E-31, -1.000000000000000000, -1.224646799147353207E-16 ) ) ;
#183 = VERTEX_POINT ( 'NONE', #35 ) ;
#184 = CARTESIAN_POINT ( 'NONE',  ( 2.025059176529017346E-13, 1.312289809829115007E-32, 58.00000000000000000 ) ) ;
#185 = ADVANCED_FACE ( 'NONE', ( #118, #176 ), #163, .T. ) ;
#186 = APPROVAL ( #25, 'UNSPECIFIED' ) ;
#187 = APPROVAL_PERSON_ORGANIZATION ( #1, #152, #110 ) ;
#188 = UNCERTAINTY_MEASURE_WITH_UNIT (LENGTH_MEASURE( 1.000000000000000082E-05 ), #22, 'distance_accuracy_value', 'NONE');
#189 = CLOSED_SHELL ( 'NONE', ( #202, #185, #161, #93 ) ) ;
#190 = PRODUCT ( '35729', '35729', '', ( #71 ) ) ;
#191 = DIRECTION ( 'NONE',  ( 3.491481338843133355E-15, -1.224646799147353207E-16, 1.000000000000000000 ) ) ;
#192 =( NAMED_UNIT ( * ) SI_UNIT ( $, .STERADIAN. ) SOLID_ANGLE_UNIT ( ) );
#193 = ORIENTED_EDGE ( 'NONE', *, *, #36, .T. ) ;
#194 = EDGE_LOOP ( 'NONE', ( #65 ) ) ;
#195 = COORDINATED_UNIVERSAL_TIME_OFFSET ( 1, 0, .AHEAD. ) ;
#196 = EDGE_LOOP ( 'NONE', ( #109 ) ) ;
#197 = CONICAL_SURFACE ( 'NONE', #101, 1.750000000000000444, 0.7853981633974476129 ) ;
#198 = APPROVAL_DATE_TIME ( #56, #152 ) ;
#199 = DIRECTION ( 'NONE',  ( 4.275831445896958607E-31, 1.000000000000000000, 1.224646799147353207E-16 ) ) ;
#200 = DIRECTION ( 'NONE',  ( -3.491481338843133355E-15, 1.224646799147353207E-16, -1.000000000000000000 ) ) ;
#201 = DIRECTION ( 'NONE',  ( 3.423875456688429463E-31, 1.000000000000000000, 9.637352644315623593E-17 ) ) ;
#202 = ADVANCED_FACE ( 'NONE', ( #134 ), #74, .F. ) ;
#203 = CC_DESIGN_DATE_AND_TIME_ASSIGNMENT ( #83, #115, ( #133 ) ) ;
ENDSEC;
END-ISO-10303-21;
