ISO-10303-21;
HEADER;
FILE_DESCRIPTION (( 'STEP AP203' ),
    '1' );
FILE_NAME ('35728.step',
    '2021-10-06T11:26:19',
    ( '' ),
    ( '' ),
    'SwSTEP 2.0',
    'SolidWorks 2019',
    '' );
FILE_SCHEMA (( 'CONFIG_CONTROL_DESIGN' ));
ENDSEC;

DATA;
#1 = EDGE_LOOP ( 'NONE', ( #152 ) ) ;
#2 = COORDINATED_UNIVERSAL_TIME_OFFSET ( 1, 0, .AHEAD. ) ;
#3 = AXIS2_PLACEMENT_3D ( 'NONE', #34, #44, #10 ) ;
#4 = DIRECTION ( 'NONE',  ( 0.0000000000000000000, 1.000000000000000000, 0.0000000000000000000 ) ) ;
#5 = CARTESIAN_POINT ( 'NONE',  ( 1.920314736363723472E-13, -6.735557395310442615E-15, 55.00000000000000000 ) ) ;
#6 = CC_DESIGN_PERSON_AND_ORGANIZATION_ASSIGNMENT ( #143, #11, ( #51 ) ) ;
#7 = APPROVAL_PERSON_ORGANIZATION ( #86, #71, #33 ) ;
#8 = EDGE_LOOP ( 'NONE', ( #72 ) ) ;
#9 = ORIENTED_EDGE ( 'NONE', *, *, #187, .F. ) ;
#10 = DIRECTION ( 'NONE',  ( -3.668437989309030411E-31, -1.000000000000000000, -1.032573497605245059E-16 ) ) ;
#11 = PERSON_AND_ORGANIZATION_ROLE ( 'design_owner' ) ;
#12 = PERSON_AND_ORGANIZATION ( #174, #38 ) ;
#13 = DIRECTION ( 'NONE',  ( 0.0000000000000000000, 0.0000000000000000000, 1.000000000000000000 ) ) ;
#14 = VERTEX_POINT ( 'NONE', #189 ) ;
#15 = LOCAL_TIME ( 13, 26, 19.00000000000000000, #64 ) ;
#16 = CYLINDRICAL_SURFACE ( 'NONE', #170, 2.099999999999995648 ) ;
#17 = ADVANCED_BREP_SHAPE_REPRESENTATION ( '35728', ( #130, #129, #106 ), #196 ) ;
#18 = PERSON_AND_ORGANIZATION ( #174, #38 ) ;
#19 = PERSON_AND_ORGANIZATION_ROLE ( 'creator' ) ;
#20 = AXIS2_PLACEMENT_3D ( 'NONE', #107, #85, #90 ) ;
#21 = PRODUCT_DEFINITION_SHAPE ( 'NONE', 'NONE',  #93 ) ;
#22 = APPROVAL_PERSON_ORGANIZATION ( #113, #124, #84 ) ;
#23 = ADVANCED_FACE ( 'NONE', ( #32 ), #56, .F. ) ;
#24 = DATE_TIME_ROLE ( 'creation_date' ) ;
#25 = PERSON_AND_ORGANIZATION ( #174, #38 ) ;
#26 = AXIS2_PLACEMENT_3D ( 'NONE', #94, #46, #156 ) ;
#27 = CARTESIAN_POINT ( 'NONE',  ( 1.902857329669507363E-13, -6.674325055353074252E-15, 54.49999999999999289 ) ) ;
#28 = DATE_TIME_ROLE ( 'classification_date' ) ;
#29 = ORIENTED_EDGE ( 'NONE', *, *, #131, .F. ) ;
#30 = ADVANCED_FACE ( 'NONE', ( #184 ), #144, .T. ) ;
#31 = DIRECTION ( 'NONE',  ( -3.491481338843133355E-15, 1.224646799147353207E-16, -1.000000000000000000 ) ) ;
#32 = FACE_OUTER_BOUND ( 'NONE', #150, .T. ) ;
#33 = APPROVAL_ROLE ( '' ) ;
#34 = CARTESIAN_POINT ( 'NONE',  ( 3.419019421876458500E-15, -1.199230580052588533E-16, 0.9792460821255071224 ) ) ;
#35 = CIRCLE ( 'NONE', #120, 1.600000000000000977 ) ;
#36 = FACE_OUTER_BOUND ( 'NONE', #136, .T. ) ;
#37 =( LENGTH_UNIT ( ) NAMED_UNIT ( * ) SI_UNIT ( .MILLI., .METRE. ) );
#38 = ORGANIZATION ( 'UNSPECIFIED', 'UNSPECIFIED', '' ) ;
#39 = CALENDAR_DATE ( 2021, 6, 10 ) ;
#40 = ORIENTED_EDGE ( 'NONE', *, *, #82, .T. ) ;
#41 = DIRECTION ( 'NONE',  ( -4.275831445896958607E-31, -1.000000000000000000, -1.224646799147353207E-16 ) ) ;
#42 = CARTESIAN_POINT ( 'NONE',  ( 1.920314736363723472E-13, -6.735557395310442615E-15, 55.00000000000000000 ) ) ;
#43 = AXIS2_PLACEMENT_3D ( 'NONE', #103, #31, #87 ) ;
#44 = DIRECTION ( 'NONE',  ( 3.491481338843133355E-15, -1.224646799147353207E-16, 1.000000000000000000 ) ) ;
#45 = CC_DESIGN_DATE_AND_TIME_ASSIGNMENT ( #175, #24, ( #93 ) ) ;
#46 = DIRECTION ( 'NONE',  ( 3.491481338843133355E-15, -1.224646799147353207E-16, 1.000000000000000000 ) ) ;
#47 = DIRECTION ( 'NONE',  ( -3.491481338843133355E-15, 1.224646799147353207E-16, -1.000000000000000000 ) ) ;
#48 = CC_DESIGN_PERSON_AND_ORGANIZATION_ASSIGNMENT ( #12, #168, ( #191 ) ) ;
#49 = CC_DESIGN_APPROVAL ( #124, ( #191 ) ) ;
#50 = APPLICATION_CONTEXT ( 'configuration controlled 3d designs of mechanical parts and assemblies' ) ;
#51 = PRODUCT ( '35728', '35728', '', ( #123 ) ) ;
#52 = PERSON_AND_ORGANIZATION_ROLE ( 'creator' ) ;
#53 = CYLINDRICAL_SURFACE ( 'NONE', #43, 2.099999999999998757 ) ;
#54 = CIRCLE ( 'NONE', #151, 2.099999999999996980 ) ;
#55 = ADVANCED_FACE ( 'NONE', ( #167 ), #164, .T. ) ;
#56 = PLANE ( 'NONE',  #20 ) ;
#57 = COORDINATED_UNIVERSAL_TIME_OFFSET ( 1, 0, .AHEAD. ) ;
#58 = PLANE ( 'NONE',  #26 ) ;
#59 = CC_DESIGN_PERSON_AND_ORGANIZATION_ASSIGNMENT ( #25, #19, ( #93 ) ) ;
#60 = EDGE_LOOP ( 'NONE', ( #9 ) ) ;
#61 = CIRCLE ( 'NONE', #140, 2.099999999999996980 ) ;
#62 = CARTESIAN_POINT ( 'NONE',  ( 7.681258945454893382E-14, 2.099999999999994316, 22.00000000000000000 ) ) ;
#63 = CC_DESIGN_PERSON_AND_ORGANIZATION_ASSIGNMENT ( #89, #119, ( #88 ) ) ;
#64 = COORDINATED_UNIVERSAL_TIME_OFFSET ( 1, 0, .AHEAD. ) ;
#65 = DESIGN_CONTEXT ( 'detailed design', #192, 'design' ) ;
#66 = LOCAL_TIME ( 13, 26, 19.00000000000000000, #190 ) ;
#67 = AXIS2_PLACEMENT_3D ( 'NONE', #153, #69, #41 ) ;
#68 = FACE_BOUND ( 'NONE', #138, .T. ) ;
#69 = DIRECTION ( 'NONE',  ( 3.491481338843133355E-15, -1.224646799147353207E-16, 1.000000000000000000 ) ) ;
#70 = FACE_OUTER_BOUND ( 'NONE', #197, .T. ) ;
#71 = APPROVAL ( #166, 'UNSPECIFIED' ) ;
#72 = ORIENTED_EDGE ( 'NONE', *, *, #187, .T. ) ;
#73 = DATE_AND_TIME ( #185, #135 ) ;
#74 = DIRECTION ( 'NONE',  ( -3.491481338843133355E-15, 1.224646799147353207E-16, -1.000000000000000000 ) ) ;
#75 = APPLICATION_PROTOCOL_DEFINITION ( 'international standard', 'config_control_design', 1994, #192 ) ;
#76 = VERTEX_POINT ( 'NONE', #155 ) ;
#77 = VERTEX_POINT ( 'NONE', #62 ) ;
#78 = EDGE_CURVE ( 'NONE', #76, #76, #35, .T. ) ;
#79 = AXIS2_PLACEMENT_3D ( 'NONE', #27, #149, #4 ) ;
#80 = CARTESIAN_POINT ( 'NONE',  ( 7.681258945454893382E-14, 2.099999999999994316, 22.00000000000000000 ) ) ;
#81 = DIRECTION ( 'NONE',  ( -3.491481338843133355E-15, 1.224646799147353207E-16, -1.000000000000000000 ) ) ;
#82 = EDGE_CURVE ( 'NONE', #14, #14, #183, .T. ) ;
#83 = ORIENTED_EDGE ( 'NONE', *, *, #78, .F. ) ;
#84 = APPROVAL_ROLE ( '' ) ;
#85 = DIRECTION ( 'NONE',  ( -3.491481338843133355E-15, 1.224646799147353207E-16, -1.000000000000000000 ) ) ;
#86 = PERSON_AND_ORGANIZATION ( #174, #38 ) ;
#87 = DIRECTION ( 'NONE',  ( 4.275831445896958607E-31, 1.000000000000000000, 1.224646799147353207E-16 ) ) ;
#88 = SECURITY_CLASSIFICATION ( '', '', #104 ) ;
#89 = PERSON_AND_ORGANIZATION ( #174, #38 ) ;
#90 = DIRECTION ( 'NONE',  ( 4.275831445896958607E-31, 1.000000000000000000, 1.224646799147353207E-16 ) ) ;
#91 = CARTESIAN_POINT ( 'NONE',  ( 3.419019421876459289E-15, 2.099999999999994316, 0.9792460821255073444 ) ) ;
#92 = AXIS2_PLACEMENT_3D ( 'NONE', #95, #47, #157 ) ;
#93 = PRODUCT_DEFINITION ( 'UNKNOWN', '', #191, #65 ) ;
#94 = CARTESIAN_POINT ( 'NONE',  ( 7.681258945454893382E-14, 1.574747771794944193E-32, 22.00000000000000000 ) ) ;
#95 = CARTESIAN_POINT ( 'NONE',  ( 3.419019421876458500E-15, -1.199230580052588533E-16, 0.9792460821255071224 ) ) ;
#96 =( NAMED_UNIT ( * ) PLANE_ANGLE_UNIT ( ) SI_UNIT ( $, .RADIAN. ) );
#97 = APPROVAL_PERSON_ORGANIZATION ( #18, #182, #186 ) ;
#98 = VERTEX_POINT ( 'NONE', #91 ) ;
#99 = ADVANCED_FACE ( 'NONE', ( #117, #68 ), #147, .T. ) ;
#100 = ADVANCED_FACE ( 'NONE', ( #70, #195 ), #53, .T. ) ;
#101 = LOCAL_TIME ( 13, 26, 19.00000000000000000, #116 ) ;
#102 = PERSON_AND_ORGANIZATION ( #174, #38 ) ;
#103 = CARTESIAN_POINT ( 'NONE',  ( 0.0000000000000000000, 0.0000000000000000000, 0.0000000000000000000 ) ) ;
#104 = SECURITY_CLASSIFICATION_LEVEL ( 'unclassified' ) ;
#105 = ORIENTED_EDGE ( 'NONE', *, *, #154, .F. ) ;
#106 = AXIS2_PLACEMENT_3D ( 'NONE', #110, #13, #111 ) ;
#107 = CARTESIAN_POINT ( 'NONE',  ( 1.920314736363723472E-13, 1.199807826129476781E-32, 55.00000000000000000 ) ) ;
#108 = CLOSED_SHELL ( 'NONE', ( #118, #100, #99, #23 ) ) ;
#109 = CC_DESIGN_APPROVAL ( #182, ( #93 ) ) ;
#110 = CARTESIAN_POINT ( 'NONE',  ( 0.0000000000000000000, 0.0000000000000000000, 0.0000000000000000000 ) ) ;
#111 = DIRECTION ( 'NONE',  ( 1.000000000000000000, 0.0000000000000000000, 0.0000000000000000000 ) ) ;
#112 = CC_DESIGN_APPROVAL ( #71, ( #88 ) ) ;
#113 = PERSON_AND_ORGANIZATION ( #174, #38 ) ;
#114 = EDGE_LOOP ( 'NONE', ( #178 ) ) ;
#115 = LOCAL_TIME ( 13, 26, 19.00000000000000000, #2 ) ;
#116 = COORDINATED_UNIVERSAL_TIME_OFFSET ( 1, 0, .AHEAD. ) ;
#117 = FACE_OUTER_BOUND ( 'NONE', #114, .T. ) ;
#118 = ADVANCED_FACE ( 'NONE', ( #137 ), #58, .F. ) ;
#119 = PERSON_AND_ORGANIZATION_ROLE ( 'classification_officer' ) ;
#120 = AXIS2_PLACEMENT_3D ( 'NONE', #42, #74, #162 ) ;
#121 = CC_DESIGN_DATE_AND_TIME_ASSIGNMENT ( #139, #28, ( #88 ) ) ;
#122 = CARTESIAN_POINT ( 'NONE',  ( 7.681258945454893382E-14, -2.694222958124176809E-15, 22.00000000000000000 ) ) ;
#123 = MECHANICAL_CONTEXT ( 'NONE', #50, 'mechanical' ) ;
#124 = APPROVAL ( #176, 'UNSPECIFIED' ) ;
#125 = CALENDAR_DATE ( 2021, 6, 10 ) ;
#126 = DIRECTION ( 'NONE',  ( 4.275831445896958607E-31, 1.000000000000000000, 1.224646799147352961E-16 ) ) ;
#127 = PRODUCT_RELATED_PRODUCT_CATEGORY ( 'detail', '', ( #51 ) ) ;
#128 = CIRCLE ( 'NONE', #92, 2.099999999999994316 ) ;
#129 = MANIFOLD_SOLID_BREP ( 'Corps-Déplacer/Copier1[2]', #158 ) ;
#130 = MANIFOLD_SOLID_BREP ( 'Corps-Déplacer/Copier1[1]', #108 ) ;
#131 = EDGE_CURVE ( 'NONE', #169, #169, #54, .T. ) ;
#132 = CALENDAR_DATE ( 2021, 6, 10 ) ;
#133 = DATE_AND_TIME ( #39, #101 ) ;
#134 = ORIENTED_EDGE ( 'NONE', *, *, #154, .T. ) ;
#135 = LOCAL_TIME ( 13, 26, 19.00000000000000000, #57 ) ;
#136 = EDGE_LOOP ( 'NONE', ( #134 ) ) ;
#137 = FACE_OUTER_BOUND ( 'NONE', #1, .T. ) ;
#138 = EDGE_LOOP ( 'NONE', ( #141 ) ) ;
#139 = DATE_AND_TIME ( #163, #66 ) ;
#140 = AXIS2_PLACEMENT_3D ( 'NONE', #122, #81, #172 ) ;
#141 = ORIENTED_EDGE ( 'NONE', *, *, #78, .T. ) ;
#142 = DIRECTION ( 'NONE',  ( 0.0000000000000000000, 1.000000000000000000, 0.0000000000000000000 ) ) ;
#143 = PERSON_AND_ORGANIZATION ( #174, #38 ) ;
#144 = CONICAL_SURFACE ( 'NONE', #3, 2.099999999999994316, 1.134464013796309123 ) ;
#145 =( NAMED_UNIT ( * ) SI_UNIT ( $, .STERADIAN. ) SOLID_ANGLE_UNIT ( ) );
#146 = FACE_OUTER_BOUND ( 'NONE', #60, .T. ) ;
#147 = CONICAL_SURFACE ( 'NONE', #202, 1.600000000000000977, 0.7853981633974407295 ) ;
#148 = EDGE_LOOP ( 'NONE', ( #40 ) ) ;
#149 = DIRECTION ( 'NONE',  ( -3.491481338843133355E-15, 1.224646799147353207E-16, -1.000000000000000000 ) ) ;
#150 = EDGE_LOOP ( 'NONE', ( #83 ) ) ;
#151 = AXIS2_PLACEMENT_3D ( 'NONE', #173, #188, #142 ) ;
#152 = ORIENTED_EDGE ( 'NONE', *, *, #131, .T. ) ;
#153 = CARTESIAN_POINT ( 'NONE',  ( 7.681258945454893382E-14, 1.574747771794944193E-32, 22.00000000000000000 ) ) ;
#154 = EDGE_CURVE ( 'NONE', #77, #77, #61, .T. ) ;
#155 = CARTESIAN_POINT ( 'NONE',  ( 1.920314736363723472E-13, 1.599999999999994316, 55.00000000000000000 ) ) ;
#156 = DIRECTION ( 'NONE',  ( -4.275831445896958607E-31, -1.000000000000000000, -1.224646799147353207E-16 ) ) ;
#157 = DIRECTION ( 'NONE',  ( 3.668437989309030411E-31, 1.000000000000000000, 1.032573497605245059E-16 ) ) ;
#158 = CLOSED_SHELL ( 'NONE', ( #30, #165, #55 ) ) ;
#159 = DIRECTION ( 'NONE',  ( -3.491481338843133355E-15, 1.224646799147353207E-16, -1.000000000000000000 ) ) ;
#160 = CC_DESIGN_SECURITY_CLASSIFICATION ( #88, ( #191 ) ) ;
#161 = APPROVAL_DATE_TIME ( #200, #182 ) ;
#162 = DIRECTION ( 'NONE',  ( 0.0000000000000000000, 1.000000000000000000, 0.0000000000000000000 ) ) ;
#163 = CALENDAR_DATE ( 2021, 6, 10 ) ;
#164 = PLANE ( 'NONE',  #67 ) ;
#165 = ADVANCED_FACE ( 'NONE', ( #146, #36 ), #16, .T. ) ;
#166 = APPROVAL_STATUS ( 'not_yet_approved' ) ;
#167 = FACE_OUTER_BOUND ( 'NONE', #177, .T. ) ;
#168 = PERSON_AND_ORGANIZATION_ROLE ( 'design_supplier' ) ;
#169 = VERTEX_POINT ( 'NONE', #80 ) ;
#170 = AXIS2_PLACEMENT_3D ( 'NONE', #201, #159, #126 ) ;
#171 = APPLICATION_PROTOCOL_DEFINITION ( 'international standard', 'config_control_design', 1994, #50 ) ;
#172 = DIRECTION ( 'NONE',  ( 0.0000000000000000000, 1.000000000000000000, 0.0000000000000000000 ) ) ;
#173 = CARTESIAN_POINT ( 'NONE',  ( 7.681258945454893382E-14, -2.694222958124176809E-15, 22.00000000000000000 ) ) ;
#174 = PERSON ( 'UNSPECIFIED', 'UNSPECIFIED', 'UNSPECIFIED', ('UNSPECIFIED'), ('UNSPECIFIED'), ('UNSPECIFIED') ) ;
#175 = DATE_AND_TIME ( #132, #115 ) ;
#176 = APPROVAL_STATUS ( 'not_yet_approved' ) ;
#177 = EDGE_LOOP ( 'NONE', ( #105 ) ) ;
#178 = ORIENTED_EDGE ( 'NONE', *, *, #82, .F. ) ;
#179 = SHAPE_DEFINITION_REPRESENTATION ( #21, #17 ) ;
#180 = DIRECTION ( 'NONE',  ( 0.0000000000000000000, 1.000000000000000000, 0.0000000000000000000 ) ) ;
#181 = APPROVAL_DATE_TIME ( #73, #71 ) ;
#182 = APPROVAL ( #199, 'UNSPECIFIED' ) ;
#183 = CIRCLE ( 'NONE', #79, 2.100000000000000533 ) ;
#184 = FACE_OUTER_BOUND ( 'NONE', #8, .T. ) ;
#185 = CALENDAR_DATE ( 2021, 6, 10 ) ;
#186 = APPROVAL_ROLE ( '' ) ;
#187 = EDGE_CURVE ( 'NONE', #98, #98, #128, .T. ) ;
#188 = DIRECTION ( 'NONE',  ( -3.491481338843133355E-15, 1.224646799147353207E-16, -1.000000000000000000 ) ) ;
#189 = CARTESIAN_POINT ( 'NONE',  ( 1.902857329669507363E-13, 2.099999999999994316, 54.49999999999999289 ) ) ;
#190 = COORDINATED_UNIVERSAL_TIME_OFFSET ( 1, 0, .AHEAD. ) ;
#191 = PRODUCT_DEFINITION_FORMATION_WITH_SPECIFIED_SOURCE ( 'ANY', '', #51, .NOT_KNOWN. ) ;
#192 = APPLICATION_CONTEXT ( 'configuration controlled 3d designs of mechanical parts and assemblies' ) ;
#193 = UNCERTAINTY_MEASURE_WITH_UNIT (LENGTH_MEASURE( 1.000000000000000082E-05 ), #37, 'distance_accuracy_value', 'NONE');
#194 = APPROVAL_DATE_TIME ( #133, #124 ) ;
#195 = FACE_OUTER_BOUND ( 'NONE', #148, .T. ) ;
#196 =( GEOMETRIC_REPRESENTATION_CONTEXT ( 3 ) GLOBAL_UNCERTAINTY_ASSIGNED_CONTEXT ( ( #193 ) ) GLOBAL_UNIT_ASSIGNED_CONTEXT ( ( #37, #96, #145 ) ) REPRESENTATION_CONTEXT ( 'NONE', 'WORKASPACE' ) );
#197 = EDGE_LOOP ( 'NONE', ( #29 ) ) ;
#198 = DIRECTION ( 'NONE',  ( -3.491481338843133355E-15, 1.224646799147353207E-16, -1.000000000000000000 ) ) ;
#199 = APPROVAL_STATUS ( 'not_yet_approved' ) ;
#200 = DATE_AND_TIME ( #125, #15 ) ;
#201 = CARTESIAN_POINT ( 'NONE',  ( 0.0000000000000000000, 0.0000000000000000000, 0.0000000000000000000 ) ) ;
#202 = AXIS2_PLACEMENT_3D ( 'NONE', #5, #198, #180 ) ;
#203 = CC_DESIGN_PERSON_AND_ORGANIZATION_ASSIGNMENT ( #102, #52, ( #191 ) ) ;
ENDSEC;
END-ISO-10303-21;
