ISO-10303-21;
HEADER;
FILE_DESCRIPTION (( 'STEP AP203' ),
    '1' );
FILE_NAME ('35727.step',
    '2021-10-06T11:26:17',
    ( '' ),
    ( '' ),
    'SwSTEP 2.0',
    'SolidWorks 2019',
    '' );
FILE_SCHEMA (( 'CONFIG_CONTROL_DESIGN' ));
ENDSEC;

DATA;
#1 = DIRECTION ( 'NONE',  ( 0.0000000000000000000, 1.000000000000000000, 0.0000000000000000000 ) ) ;
#2 = APPROVAL_STATUS ( 'not_yet_approved' ) ;
#3 = CIRCLE ( 'NONE', #111, 1.749999999999996891 ) ;
#4 = PRODUCT_DEFINITION ( 'UNKNOWN', '', #171, #67 ) ;
#5 = ORIENTED_EDGE ( 'NONE', *, *, #118, .T. ) ;
#6 = APPROVAL_PERSON_ORGANIZATION ( #33, #18, #151 ) ;
#7 = EDGE_LOOP ( 'NONE', ( #5 ) ) ;
#8 = DIRECTION ( 'NONE',  ( -3.491481338843133355E-15, 1.224646799147353207E-16, -1.000000000000000000 ) ) ;
#9 = CIRCLE ( 'NONE', #50, 1.749999999999996891 ) ;
#10 = ORIENTED_EDGE ( 'NONE', *, *, #90, .T. ) ;
#11 = FACE_OUTER_BOUND ( 'NONE', #114, .T. ) ;
#12 = DIRECTION ( 'NONE',  ( -3.491481338843133355E-15, 1.224646799147353207E-16, -1.000000000000000000 ) ) ;
#13 = PLANE ( 'NONE',  #163 ) ;
#14 = CARTESIAN_POINT ( 'NONE',  ( 0.0000000000000000000, 0.0000000000000000000, 0.0000000000000000000 ) ) ;
#15 = PERSON_AND_ORGANIZATION_ROLE ( 'creator' ) ;
#16 = AXIS2_PLACEMENT_3D ( 'NONE', #136, #77, #140 ) ;
#17 = DATE_TIME_ROLE ( 'classification_date' ) ;
#18 = APPROVAL ( #183, 'UNSPECIFIED' ) ;
#19 = DATE_AND_TIME ( #148, #138 ) ;
#20 = CC_DESIGN_APPROVAL ( #104, ( #4 ) ) ;
#21 = CONICAL_SURFACE ( 'NONE', #74, 1.350000000000000533, 0.7853981633974512766 ) ;
#22 = COORDINATED_UNIVERSAL_TIME_OFFSET ( 1, 0, .AHEAD. ) ;
#23 = DIRECTION ( 'NONE',  ( -3.491481338843133355E-15, 1.224646799147353207E-16, -1.000000000000000000 ) ) ;
#24 = APPLICATION_CONTEXT ( 'configuration controlled 3d designs of mechanical parts and assemblies' ) ;
#25 = CC_DESIGN_SECURITY_CLASSIFICATION ( #153, ( #171 ) ) ;
#26 = CARTESIAN_POINT ( 'NONE',  ( 0.0000000000000000000, 0.0000000000000000000, 0.0000000000000000000 ) ) ;
#27 = VERTEX_POINT ( 'NONE', #84 ) ;
#28 = CC_DESIGN_PERSON_AND_ORGANIZATION_ASSIGNMENT ( #193, #179, ( #153 ) ) ;
#29 = ORIENTED_EDGE ( 'NONE', *, *, #57, .F. ) ;
#30 = DIRECTION ( 'NONE',  ( -4.275831445896958607E-31, -1.000000000000000000, -1.224646799147353207E-16 ) ) ;
#31 = PERSON_AND_ORGANIZATION_ROLE ( 'design_supplier' ) ;
#32 = ADVANCED_FACE ( 'NONE', ( #79 ), #66, .T. ) ;
#33 = PERSON_AND_ORGANIZATION ( #107, #175 ) ;
#34 = CC_DESIGN_APPROVAL ( #18, ( #171 ) ) ;
#35 = CC_DESIGN_PERSON_AND_ORGANIZATION_ASSIGNMENT ( #109, #15, ( #4 ) ) ;
#36 = CARTESIAN_POINT ( 'NONE',  ( 2.849182851563714562E-15, -9.993588167104901563E-17, 0.8160384017712557503 ) ) ;
#37 = CIRCLE ( 'NONE', #89, 1.750000000000000444 ) ;
#38 = UNCERTAINTY_MEASURE_WITH_UNIT (LENGTH_MEASURE( 1.000000000000000082E-05 ), #124, 'distance_accuracy_value', 'NONE');
#39 = CC_DESIGN_PERSON_AND_ORGANIZATION_ASSIGNMENT ( #202, #100, ( #149 ) ) ;
#40 = AXIS2_PLACEMENT_3D ( 'NONE', #156, #68, #169 ) ;
#41 = VERTEX_POINT ( 'NONE', #192 ) ;
#42 = APPROVAL_DATE_TIME ( #190, #104 ) ;
#43 = DIRECTION ( 'NONE',  ( 4.275831445896958607E-31, 1.000000000000000000, 1.224646799147353207E-16 ) ) ;
#44 = MANIFOLD_SOLID_BREP ( 'Corps-Déplacer/Copier1[1]', #97 ) ;
#45 = ORIENTED_EDGE ( 'NONE', *, *, #90, .F. ) ;
#46 = VERTEX_POINT ( 'NONE', #170 ) ;
#47 = PERSON_AND_ORGANIZATION ( #107, #175 ) ;
#48 = COORDINATED_UNIVERSAL_TIME_OFFSET ( 1, 0, .AHEAD. ) ;
#49 = PERSON_AND_ORGANIZATION ( #107, #175 ) ;
#50 = AXIS2_PLACEMENT_3D ( 'NONE', #54, #187, #1 ) ;
#51 = ORIENTED_EDGE ( 'NONE', *, *, #63, .F. ) ;
#52 = FACE_BOUND ( 'NONE', #154, .T. ) ;
#53 =( GEOMETRIC_REPRESENTATION_CONTEXT ( 3 ) GLOBAL_UNCERTAINTY_ASSIGNED_CONTEXT ( ( #38 ) ) GLOBAL_UNIT_ASSIGNED_CONTEXT ( ( #124, #201, #86 ) ) REPRESENTATION_CONTEXT ( 'NONE', 'WORKASPACE' ) );
#54 = CARTESIAN_POINT ( 'NONE',  ( 6.982962677686266711E-14, -2.449293598294706513E-15, 20.00000000000000000 ) ) ;
#55 = APPROVAL_ROLE ( '' ) ;
#56 = LOCAL_TIME ( 13, 26, 17.00000000000000000, #91 ) ;
#57 = EDGE_CURVE ( 'NONE', #162, #162, #37, .T. ) ;
#58 = PERSON_AND_ORGANIZATION ( #107, #175 ) ;
#59 = AXIS2_PLACEMENT_3D ( 'NONE', #81, #12, #43 ) ;
#60 = COORDINATED_UNIVERSAL_TIME_OFFSET ( 1, 0, .AHEAD. ) ;
#61 = CC_DESIGN_DATE_AND_TIME_ASSIGNMENT ( #19, #195, ( #4 ) ) ;
#62 = EDGE_LOOP ( 'NONE', ( #10 ) ) ;
#63 = EDGE_CURVE ( 'NONE', #41, #41, #94, .T. ) ;
#64 = DIRECTION ( 'NONE',  ( 4.402125587170838945E-31, 1.000000000000000000, 1.239088197126294761E-16 ) ) ;
#65 = ORIENTED_EDGE ( 'NONE', *, *, #118, .F. ) ;
#66 = CONICAL_SURFACE ( 'NONE', #40, 1.749999999999994449, 1.134464013796309123 ) ;
#67 = DESIGN_CONTEXT ( 'detailed design', #24, 'design' ) ;
#68 = DIRECTION ( 'NONE',  ( 3.491481338843133355E-15, -1.224646799147353207E-16, 1.000000000000000000 ) ) ;
#69 = CLOSED_SHELL ( 'NONE', ( #32, #76, #139 ) ) ;
#70 = APPLICATION_PROTOCOL_DEFINITION ( 'international standard', 'config_control_design', 1994, #110 ) ;
#71 = ADVANCED_FACE ( 'NONE', ( #95 ), #157, .F. ) ;
#72 = AXIS2_PLACEMENT_3D ( 'NONE', #36, #8, #64 ) ;
#73 = PRODUCT_DEFINITION_SHAPE ( 'NONE', 'NONE',  #4 ) ;
#74 = AXIS2_PLACEMENT_3D ( 'NONE', #120, #137, #92 ) ;
#75 = EDGE_LOOP ( 'NONE', ( #144 ) ) ;
#76 = ADVANCED_FACE ( 'NONE', ( #188, #93 ), #96, .T. ) ;
#77 = DIRECTION ( 'NONE',  ( 3.491481338843133355E-15, -1.224646799147353207E-16, 1.000000000000000000 ) ) ;
#78 = DIRECTION ( 'NONE',  ( -3.491481338843133355E-15, 1.224646799147353207E-16, -1.000000000000000000 ) ) ;
#79 = FACE_OUTER_BOUND ( 'NONE', #62, .T. ) ;
#80 = EDGE_LOOP ( 'NONE', ( #29 ) ) ;
#81 = CARTESIAN_POINT ( 'NONE',  ( 0.0000000000000000000, 0.0000000000000000000, 0.0000000000000000000 ) ) ;
#82 = FACE_OUTER_BOUND ( 'NONE', #75, .T. ) ;
#83 = CC_DESIGN_DATE_AND_TIME_ASSIGNMENT ( #177, #17, ( #153 ) ) ;
#84 = CARTESIAN_POINT ( 'NONE',  ( 6.982962677686266711E-14, 1.749999999999994449, 20.00000000000000000 ) ) ;
#85 = EDGE_LOOP ( 'NONE', ( #65 ) ) ;
#86 =( NAMED_UNIT ( * ) SI_UNIT ( $, .STERADIAN. ) SOLID_ANGLE_UNIT ( ) );
#87 = LOCAL_TIME ( 13, 26, 17.00000000000000000, #122 ) ;
#88 = CC_DESIGN_PERSON_AND_ORGANIZATION_ASSIGNMENT ( #47, #31, ( #171 ) ) ;
#89 = AXIS2_PLACEMENT_3D ( 'NONE', #168, #23, #199 ) ;
#90 = EDGE_CURVE ( 'NONE', #46, #46, #134, .T. ) ;
#91 = COORDINATED_UNIVERSAL_TIME_OFFSET ( 1, 0, .AHEAD. ) ;
#92 = DIRECTION ( 'NONE',  ( 0.0000000000000000000, 1.000000000000000000, 0.0000000000000000000 ) ) ;
#93 = FACE_OUTER_BOUND ( 'NONE', #7, .T. ) ;
#94 = CIRCLE ( 'NONE', #160, 1.350000000000000533 ) ;
#95 = FACE_OUTER_BOUND ( 'NONE', #196, .T. ) ;
#96 = CYLINDRICAL_SURFACE ( 'NONE', #117, 1.749999999999995559 ) ;
#97 = CLOSED_SHELL ( 'NONE', ( #71, #132, #115, #172 ) ) ;
#98 = CYLINDRICAL_SURFACE ( 'NONE', #59, 1.749999999999998446 ) ;
#99 = PLANE ( 'NONE',  #186 ) ;
#100 = PERSON_AND_ORGANIZATION_ROLE ( 'design_owner' ) ;
#101 = EDGE_LOOP ( 'NONE', ( #45 ) ) ;
#102 = AXIS2_PLACEMENT_3D ( 'NONE', #14, #126, #191 ) ;
#103 = DIRECTION ( 'NONE',  ( -3.491481338843133355E-15, 1.224646799147353207E-16, -1.000000000000000000 ) ) ;
#104 = APPROVAL ( #129, 'UNSPECIFIED' ) ;
#105 = APPROVAL_ROLE ( '' ) ;
#106 = CC_DESIGN_APPROVAL ( #167, ( #153 ) ) ;
#107 = PERSON ( 'UNSPECIFIED', 'UNSPECIFIED', 'UNSPECIFIED', ('UNSPECIFIED'), ('UNSPECIFIED'), ('UNSPECIFIED') ) ;
#108 = DATE_AND_TIME ( #165, #178 ) ;
#109 = PERSON_AND_ORGANIZATION ( #107, #175 ) ;
#110 = APPLICATION_CONTEXT ( 'configuration controlled 3d designs of mechanical parts and assemblies' ) ;
#111 = AXIS2_PLACEMENT_3D ( 'NONE', #119, #116, #166 ) ;
#112 = PERSON_AND_ORGANIZATION ( #107, #175 ) ;
#113 = DIRECTION ( 'NONE',  ( 0.0000000000000000000, 1.000000000000000000, 0.0000000000000000000 ) ) ;
#114 = EDGE_LOOP ( 'NONE', ( #51 ) ) ;
#115 = ADVANCED_FACE ( 'NONE', ( #197, #52 ), #21, .T. ) ;
#116 = DIRECTION ( 'NONE',  ( -3.491481338843133355E-15, 1.224646799147353207E-16, -1.000000000000000000 ) ) ;
#117 = AXIS2_PLACEMENT_3D ( 'NONE', #26, #184, #155 ) ;
#118 = EDGE_CURVE ( 'NONE', #159, #159, #3, .T. ) ;
#119 = CARTESIAN_POINT ( 'NONE',  ( 6.982962677686266711E-14, -2.449293598294706513E-15, 20.00000000000000000 ) ) ;
#120 = CARTESIAN_POINT ( 'NONE',  ( 1.745740669421566678E-13, -6.123233995736766085E-15, 50.00000000000000000 ) ) ;
#121 = ORIENTED_EDGE ( 'NONE', *, *, #128, .T. ) ;
#122 = COORDINATED_UNIVERSAL_TIME_OFFSET ( 1, 0, .AHEAD. ) ;
#123 = APPROVAL_PERSON_ORGANIZATION ( #58, #104, #55 ) ;
#124 =( LENGTH_UNIT ( ) NAMED_UNIT ( * ) SI_UNIT ( .MILLI., .METRE. ) );
#125 = CARTESIAN_POINT ( 'NONE',  ( 6.982962677686266711E-14, 1.312289809829119386E-32, 20.00000000000000000 ) ) ;
#126 = DIRECTION ( 'NONE',  ( 0.0000000000000000000, 0.0000000000000000000, 1.000000000000000000 ) ) ;
#127 = LOCAL_TIME ( 13, 26, 17.00000000000000000, #60 ) ;
#128 = EDGE_CURVE ( 'NONE', #27, #27, #9, .T. ) ;
#129 = APPROVAL_STATUS ( 'not_yet_approved' ) ;
#130 = PRODUCT_RELATED_PRODUCT_CATEGORY ( 'detail', '', ( #149 ) ) ;
#131 = APPROVAL_DATE_TIME ( #164, #18 ) ;
#132 = ADVANCED_FACE ( 'NONE', ( #82, #161 ), #98, .T. ) ;
#133 = CALENDAR_DATE ( 2021, 6, 10 ) ;
#134 = CIRCLE ( 'NONE', #72, 1.749999999999994449 ) ;
#135 = ORIENTED_EDGE ( 'NONE', *, *, #57, .T. ) ;
#136 = CARTESIAN_POINT ( 'NONE',  ( 6.982962677686266711E-14, 1.312289809829119386E-32, 20.00000000000000000 ) ) ;
#137 = DIRECTION ( 'NONE',  ( -3.491481338843133355E-15, 1.224646799147353207E-16, -1.000000000000000000 ) ) ;
#138 = LOCAL_TIME ( 13, 26, 17.00000000000000000, #22 ) ;
#139 = ADVANCED_FACE ( 'NONE', ( #143 ), #13, .T. ) ;
#140 = DIRECTION ( 'NONE',  ( -4.275831445896958607E-31, -1.000000000000000000, -1.224646799147353207E-16 ) ) ;
#141 = ORIENTED_EDGE ( 'NONE', *, *, #63, .T. ) ;
#142 = MECHANICAL_CONTEXT ( 'NONE', #110, 'mechanical' ) ;
#143 = FACE_OUTER_BOUND ( 'NONE', #85, .T. ) ;
#144 = ORIENTED_EDGE ( 'NONE', *, *, #128, .F. ) ;
#145 = CALENDAR_DATE ( 2021, 6, 10 ) ;
#146 = CC_DESIGN_PERSON_AND_ORGANIZATION_ASSIGNMENT ( #112, #194, ( #171 ) ) ;
#147 = CARTESIAN_POINT ( 'NONE',  ( 1.745740669421566678E-13, 1.012337853296745264E-32, 50.00000000000000000 ) ) ;
#148 = CALENDAR_DATE ( 2021, 6, 10 ) ;
#149 = PRODUCT ( '35727', '35727', '', ( #142 ) ) ;
#150 = SECURITY_CLASSIFICATION_LEVEL ( 'unclassified' ) ;
#151 = APPROVAL_ROLE ( '' ) ;
#152 = CALENDAR_DATE ( 2021, 6, 10 ) ;
#153 = SECURITY_CLASSIFICATION ( '', '', #150 ) ;
#154 = EDGE_LOOP ( 'NONE', ( #141 ) ) ;
#155 = DIRECTION ( 'NONE',  ( 4.275831445896958607E-31, 1.000000000000000000, 1.224646799147353207E-16 ) ) ;
#156 = CARTESIAN_POINT ( 'NONE',  ( 2.849182851563714562E-15, -9.993588167104901563E-17, 0.8160384017712557503 ) ) ;
#157 = PLANE ( 'NONE',  #16 ) ;
#158 = DIRECTION ( 'NONE',  ( 3.491481338843133355E-15, -1.224646799147353207E-16, 1.000000000000000000 ) ) ;
#159 = VERTEX_POINT ( 'NONE', #173 ) ;
#160 = AXIS2_PLACEMENT_3D ( 'NONE', #185, #78, #113 ) ;
#161 = FACE_OUTER_BOUND ( 'NONE', #198, .T. ) ;
#162 = VERTEX_POINT ( 'NONE', #176 ) ;
#163 = AXIS2_PLACEMENT_3D ( 'NONE', #125, #158, #30 ) ;
#164 = DATE_AND_TIME ( #133, #127 ) ;
#165 = CALENDAR_DATE ( 2021, 6, 10 ) ;
#166 = DIRECTION ( 'NONE',  ( 0.0000000000000000000, 1.000000000000000000, 0.0000000000000000000 ) ) ;
#167 = APPROVAL ( #2, 'UNSPECIFIED' ) ;
#168 = CARTESIAN_POINT ( 'NONE',  ( 1.731774744066194397E-13, -6.074248123770872657E-15, 49.60000000000000853 ) ) ;
#169 = DIRECTION ( 'NONE',  ( -4.402125587170838945E-31, -1.000000000000000000, -1.239088197126294761E-16 ) ) ;
#170 = CARTESIAN_POINT ( 'NONE',  ( 2.849182851563715351E-15, 1.749999999999994449, 0.8160384017712559723 ) ) ;
#171 = PRODUCT_DEFINITION_FORMATION_WITH_SPECIFIED_SOURCE ( 'ANY', '', #149, .NOT_KNOWN. ) ;
#172 = ADVANCED_FACE ( 'NONE', ( #11 ), #99, .F. ) ;
#173 = CARTESIAN_POINT ( 'NONE',  ( 6.982962677686266711E-14, 1.749999999999994449, 20.00000000000000000 ) ) ;
#174 = ADVANCED_BREP_SHAPE_REPRESENTATION ( '35727', ( #44, #189, #102 ), #53 ) ;
#175 = ORGANIZATION ( 'UNSPECIFIED', 'UNSPECIFIED', '' ) ;
#176 = CARTESIAN_POINT ( 'NONE',  ( 1.731774744066194397E-13, 1.749999999999994449, 49.60000000000000853 ) ) ;
#177 = DATE_AND_TIME ( #152, #56 ) ;
#178 = LOCAL_TIME ( 13, 26, 17.00000000000000000, #48 ) ;
#179 = PERSON_AND_ORGANIZATION_ROLE ( 'classification_officer' ) ;
#180 = SHAPE_DEFINITION_REPRESENTATION ( #73, #174 ) ;
#181 = APPROVAL_DATE_TIME ( #108, #167 ) ;
#182 = APPROVAL_PERSON_ORGANIZATION ( #49, #167, #105 ) ;
#183 = APPROVAL_STATUS ( 'not_yet_approved' ) ;
#184 = DIRECTION ( 'NONE',  ( -3.491481338843133355E-15, 1.224646799147353207E-16, -1.000000000000000000 ) ) ;
#185 = CARTESIAN_POINT ( 'NONE',  ( 1.745740669421566678E-13, -6.123233995736766085E-15, 50.00000000000000000 ) ) ;
#186 = AXIS2_PLACEMENT_3D ( 'NONE', #147, #103, #203 ) ;
#187 = DIRECTION ( 'NONE',  ( -3.491481338843133355E-15, 1.224646799147353207E-16, -1.000000000000000000 ) ) ;
#188 = FACE_OUTER_BOUND ( 'NONE', #101, .T. ) ;
#189 = MANIFOLD_SOLID_BREP ( 'Corps-Déplacer/Copier1[2]', #69 ) ;
#190 = DATE_AND_TIME ( #145, #87 ) ;
#191 = DIRECTION ( 'NONE',  ( 1.000000000000000000, 0.0000000000000000000, 0.0000000000000000000 ) ) ;
#192 = CARTESIAN_POINT ( 'NONE',  ( 1.745740669421566678E-13, 1.349999999999994538, 50.00000000000000000 ) ) ;
#193 = PERSON_AND_ORGANIZATION ( #107, #175 ) ;
#194 = PERSON_AND_ORGANIZATION_ROLE ( 'creator' ) ;
#195 = DATE_TIME_ROLE ( 'creation_date' ) ;
#196 = EDGE_LOOP ( 'NONE', ( #121 ) ) ;
#197 = FACE_OUTER_BOUND ( 'NONE', #80, .T. ) ;
#198 = EDGE_LOOP ( 'NONE', ( #135 ) ) ;
#199 = DIRECTION ( 'NONE',  ( 0.0000000000000000000, 1.000000000000000000, 0.0000000000000000000 ) ) ;
#200 = APPLICATION_PROTOCOL_DEFINITION ( 'international standard', 'config_control_design', 1994, #24 ) ;
#201 =( NAMED_UNIT ( * ) PLANE_ANGLE_UNIT ( ) SI_UNIT ( $, .RADIAN. ) );
#202 = PERSON_AND_ORGANIZATION ( #107, #175 ) ;
#203 = DIRECTION ( 'NONE',  ( 4.275831445896958607E-31, 1.000000000000000000, 1.224646799147353207E-16 ) ) ;
ENDSEC;
END-ISO-10303-21;
