ISO-10303-21;
HEADER;
FILE_DESCRIPTION (( 'STEP AP203' ),
    '1' );
FILE_NAME ('35726.step',
    '2021-10-06T11:26:15',
    ( '' ),
    ( '' ),
    'SwSTEP 2.0',
    'SolidWorks 2019',
    '' );
FILE_SCHEMA (( 'CONFIG_CONTROL_DESIGN' ));
ENDSEC;

DATA;
#1 = PLANE ( 'NONE',  #68 ) ;
#2 = FACE_OUTER_BOUND ( 'NONE', #178, .T. ) ;
#3 = CALENDAR_DATE ( 2021, 6, 10 ) ;
#4 = CC_DESIGN_APPROVAL ( #28, ( #194 ) ) ;
#5 = FACE_OUTER_BOUND ( 'NONE', #167, .T. ) ;
#6 = UNCERTAINTY_MEASURE_WITH_UNIT (LENGTH_MEASURE( 1.000000000000000082E-05 ), #190, 'distance_accuracy_value', 'NONE');
#7 = EDGE_LOOP ( 'NONE', ( #24 ) ) ;
#8 = MANIFOLD_SOLID_BREP ( 'Corps-Déplacer/Copier1[1]', #50 ) ;
#9 = CIRCLE ( 'NONE', #37, 1.499999999999994005 ) ;
#10 = EDGE_LOOP ( 'NONE', ( #186 ) ) ;
#11 = FACE_OUTER_BOUND ( 'NONE', #7, .T. ) ;
#12 = APPROVAL_ROLE ( '' ) ;
#13 = CARTESIAN_POINT ( 'NONE',  ( 5.586370142149013368E-14, 1.499999999999994005, 16.00000000000000000 ) ) ;
#14 = DATE_AND_TIME ( #157, #185 ) ;
#15 = PERSON_AND_ORGANIZATION ( #150, #69 ) ;
#16 = COORDINATED_UNIVERSAL_TIME_OFFSET ( 1, 0, .AHEAD. ) ;
#17 = DIRECTION ( 'NONE',  ( 0.0000000000000000000, 1.000000000000000000, 0.0000000000000000000 ) ) ;
#18 = CIRCLE ( 'NONE', #47, 1.499999999999996003 ) ;
#19 = FACE_OUTER_BOUND ( 'NONE', #74, .T. ) ;
#20 = CYLINDRICAL_SURFACE ( 'NONE', #119, 1.499999999999994893 ) ;
#21 = DESIGN_CONTEXT ( 'detailed design', #73, 'design' ) ;
#22 = DIRECTION ( 'NONE',  ( 0.0000000000000000000, 1.000000000000000000, 0.0000000000000000000 ) ) ;
#23 = ADVANCED_FACE ( 'NONE', ( #11, #91 ), #147, .T. ) ;
#24 = ORIENTED_EDGE ( 'NONE', *, *, #170, .F. ) ;
#25 = PRODUCT ( '35726', '35726', '', ( #202 ) ) ;
#26 = ORIENTED_EDGE ( 'NONE', *, *, #170, .T. ) ;
#27 = PRODUCT_DEFINITION_SHAPE ( 'NONE', 'NONE',  #138 ) ;
#28 = APPROVAL ( #92, 'UNSPECIFIED' ) ;
#29 = DATE_TIME_ROLE ( 'creation_date' ) ;
#30 = APPLICATION_PROTOCOL_DEFINITION ( 'international standard', 'config_control_design', 1994, #73 ) ;
#31 = DATE_AND_TIME ( #173, #32 ) ;
#32 = LOCAL_TIME ( 13, 26, 15.00000000000000000, #61 ) ;
#33 = VERTEX_POINT ( 'NONE', #80 ) ;
#34 = CARTESIAN_POINT ( 'NONE',  ( 5.586370142149013368E-14, -1.959434878635765131E-15, 16.00000000000000000 ) ) ;
#35 = DIRECTION ( 'NONE',  ( 0.0000000000000000000, 0.0000000000000000000, 1.000000000000000000 ) ) ;
#36 = EDGE_CURVE ( 'NONE', #75, #75, #9, .T. ) ;
#37 = AXIS2_PLACEMENT_3D ( 'NONE', #120, #159, #174 ) ;
#38 = CARTESIAN_POINT ( 'NONE',  ( 0.0000000000000000000, 0.0000000000000000000, 0.0000000000000000000 ) ) ;
#39 = CC_DESIGN_APPROVAL ( #97, ( #138 ) ) ;
#40 = DIRECTION ( 'NONE',  ( -4.275831445896958607E-31, -1.000000000000000000, -1.224646799147353207E-16 ) ) ;
#41 = DATE_AND_TIME ( #66, #199 ) ;
#42 = LOCAL_TIME ( 13, 26, 15.00000000000000000, #149 ) ;
#43 = ORIENTED_EDGE ( 'NONE', *, *, #36, .F. ) ;
#44 = ORIENTED_EDGE ( 'NONE', *, *, #36, .T. ) ;
#45 = ADVANCED_FACE ( 'NONE', ( #70 ), #160, .F. ) ;
#46 =( NAMED_UNIT ( * ) SI_UNIT ( $, .STERADIAN. ) SOLID_ANGLE_UNIT ( ) );
#47 = AXIS2_PLACEMENT_3D ( 'NONE', #34, #98, #89 ) ;
#48 = LOCAL_TIME ( 13, 26, 15.00000000000000000, #83 ) ;
#49 = CC_DESIGN_DATE_AND_TIME_ASSIGNMENT ( #41, #101, ( #85 ) ) ;
#50 = CLOSED_SHELL ( 'NONE', ( #45, #148, #23, #140 ) ) ;
#51 = CARTESIAN_POINT ( 'NONE',  ( 1.606081415867841091E-13, -5.633375276077824704E-15, 46.00000000000000000 ) ) ;
#52 = VERTEX_POINT ( 'NONE', #200 ) ;
#53 = DIRECTION ( 'NONE',  ( -3.491481338843133355E-15, 1.224646799147353207E-16, -1.000000000000000000 ) ) ;
#54 = FACE_OUTER_BOUND ( 'NONE', #105, .T. ) ;
#55 = ORIENTED_EDGE ( 'NONE', *, *, #201, .F. ) ;
#56 = DIRECTION ( 'NONE',  ( -5.135813185032649669E-31, -1.000000000000000000, -1.445602896647345080E-16 ) ) ;
#57 = COORDINATED_UNIVERSAL_TIME_OFFSET ( 1, 0, .AHEAD. ) ;
#58 = VERTEX_POINT ( 'NONE', #132 ) ;
#59 = AXIS2_PLACEMENT_3D ( 'NONE', #38, #134, #67 ) ;
#60 = CC_DESIGN_SECURITY_CLASSIFICATION ( #85, ( #194 ) ) ;
#61 = COORDINATED_UNIVERSAL_TIME_OFFSET ( 1, 0, .AHEAD. ) ;
#62 =( NAMED_UNIT ( * ) PLANE_ANGLE_UNIT ( ) SI_UNIT ( $, .RADIAN. ) );
#63 = CARTESIAN_POINT ( 'NONE',  ( 5.586370142149013368E-14, 1.124819836996387185E-32, 16.00000000000000000 ) ) ;
#64 = CC_DESIGN_PERSON_AND_ORGANIZATION_ASSIGNMENT ( #171, #139, ( #25 ) ) ;
#65 = CYLINDRICAL_SURFACE ( 'NONE', #59, 1.499999999999997780 ) ;
#66 = CALENDAR_DATE ( 2021, 6, 10 ) ;
#67 = DIRECTION ( 'NONE',  ( 4.275831445896959482E-31, 1.000000000000000000, 1.224646799147353207E-16 ) ) ;
#68 = AXIS2_PLACEMENT_3D ( 'NONE', #100, #145, #195 ) ;
#69 = ORGANIZATION ( 'UNSPECIFIED', 'UNSPECIFIED', '' ) ;
#70 = FACE_OUTER_BOUND ( 'NONE', #198, .T. ) ;
#71 = EDGE_LOOP ( 'NONE', ( #44 ) ) ;
#72 = DIRECTION ( 'NONE',  ( 3.491481338843133355E-15, -1.224646799147353207E-16, 1.000000000000000000 ) ) ;
#73 = APPLICATION_CONTEXT ( 'configuration controlled 3d designs of mechanical parts and assemblies' ) ;
#74 = EDGE_LOOP ( 'NONE', ( #43 ) ) ;
#75 = VERTEX_POINT ( 'NONE', #197 ) ;
#76 = APPROVAL ( #183, 'UNSPECIFIED' ) ;
#77 = APPROVAL_DATE_TIME ( #189, #97 ) ;
#78 = MANIFOLD_SOLID_BREP ( 'Corps-Déplacer/Copier1[2]', #90 ) ;
#79 = VERTEX_POINT ( 'NONE', #13 ) ;
#80 = CARTESIAN_POINT ( 'NONE',  ( 5.586370142149013368E-14, 1.499999999999994005, 16.00000000000000000 ) ) ;
#81 = AXIS2_PLACEMENT_3D ( 'NONE', #113, #35, #130 ) ;
#82 = PERSON_AND_ORGANIZATION_ROLE ( 'creator' ) ;
#83 = COORDINATED_UNIVERSAL_TIME_OFFSET ( 1, 0, .AHEAD. ) ;
#84 = EDGE_CURVE ( 'NONE', #52, #52, #129, .T. ) ;
#85 = SECURITY_CLASSIFICATION ( '', '', #181 ) ;
#86 = DIRECTION ( 'NONE',  ( 0.0000000000000000000, 1.000000000000000000, 0.0000000000000000000 ) ) ;
#87 = CC_DESIGN_PERSON_AND_ORGANIZATION_ASSIGNMENT ( #179, #99, ( #85 ) ) ;
#88 = DIRECTION ( 'NONE',  ( 3.491481338843133355E-15, -1.224646799147353207E-16, 1.000000000000000000 ) ) ;
#89 = DIRECTION ( 'NONE',  ( 0.0000000000000000000, 1.000000000000000000, 0.0000000000000000000 ) ) ;
#90 = CLOSED_SHELL ( 'NONE', ( #175, #163, #135 ) ) ;
#91 = FACE_BOUND ( 'NONE', #10, .T. ) ;
#92 = APPROVAL_STATUS ( 'not_yet_approved' ) ;
#93 = APPROVAL_STATUS ( 'not_yet_approved' ) ;
#94 = CONICAL_SURFACE ( 'NONE', #165, 1.499999999999994005, 1.134464013796309123 ) ;
#95 = CALENDAR_DATE ( 2021, 6, 10 ) ;
#96 = DATE_AND_TIME ( #3, #42 ) ;
#97 = APPROVAL ( #93, 'UNSPECIFIED' ) ;
#98 = DIRECTION ( 'NONE',  ( -3.491481338843133355E-15, 1.224646799147353207E-16, -1.000000000000000000 ) ) ;
#99 = PERSON_AND_ORGANIZATION_ROLE ( 'classification_officer' ) ;
#100 = CARTESIAN_POINT ( 'NONE',  ( 1.606081415867841091E-13, 8.248678804640130630E-33, 46.00000000000000000 ) ) ;
#101 = DATE_TIME_ROLE ( 'classification_date' ) ;
#102 = APPROVAL_PERSON_ORGANIZATION ( #128, #28, #156 ) ;
#103 = APPLICATION_CONTEXT ( 'configuration controlled 3d designs of mechanical parts and assemblies' ) ;
#104 = CARTESIAN_POINT ( 'NONE',  ( 5.586370142149013368E-14, -1.959434878635765131E-15, 16.00000000000000000 ) ) ;
#105 = EDGE_LOOP ( 'NONE', ( #26 ) ) ;
#106 = ORIENTED_EDGE ( 'NONE', *, *, #201, .T. ) ;
#107 = ADVANCED_BREP_SHAPE_REPRESENTATION ( '35726', ( #8, #78, #81 ), #184 ) ;
#108 = ORIENTED_EDGE ( 'NONE', *, *, #84, .F. ) ;
#109 = FACE_OUTER_BOUND ( 'NONE', #71, .T. ) ;
#110 = AXIS2_PLACEMENT_3D ( 'NONE', #51, #177, #86 ) ;
#111 = PERSON_AND_ORGANIZATION ( #150, #69 ) ;
#112 = APPROVAL_PERSON_ORGANIZATION ( #176, #76, #146 ) ;
#113 = CARTESIAN_POINT ( 'NONE',  ( 0.0000000000000000000, 0.0000000000000000000, 0.0000000000000000000 ) ) ;
#114 = APPLICATION_PROTOCOL_DEFINITION ( 'international standard', 'config_control_design', 1994, #103 ) ;
#115 = CARTESIAN_POINT ( 'NONE',  ( 1.606081415867841091E-13, -5.633375276077824704E-15, 46.00000000000000000 ) ) ;
#116 = CC_DESIGN_PERSON_AND_ORGANIZATION_ASSIGNMENT ( #15, #82, ( #194 ) ) ;
#117 = PERSON_AND_ORGANIZATION_ROLE ( 'creator' ) ;
#118 = DIRECTION ( 'NONE',  ( 3.491481338843133355E-15, -1.224646799147353207E-16, 1.000000000000000000 ) ) ;
#119 = AXIS2_PLACEMENT_3D ( 'NONE', #192, #53, #161 ) ;
#120 = CARTESIAN_POINT ( 'NONE',  ( 2.442156729911752916E-15, -8.565932714661334512E-17, 0.6994614872325042310 ) ) ;
#121 = PERSON_AND_ORGANIZATION_ROLE ( 'design_supplier' ) ;
#122 = EDGE_CURVE ( 'NONE', #79, #79, #18, .T. ) ;
#123 = DIRECTION ( 'NONE',  ( -3.491481338843133355E-15, 1.224646799147353207E-16, -1.000000000000000000 ) ) ;
#124 = CARTESIAN_POINT ( 'NONE',  ( 1.592115490512469062E-13, -5.584389404111930487E-15, 45.60000000000000142 ) ) ;
#125 = CC_DESIGN_PERSON_AND_ORGANIZATION_ASSIGNMENT ( #141, #121, ( #194 ) ) ;
#126 = EDGE_LOOP ( 'NONE', ( #108 ) ) ;
#127 = APPROVAL_PERSON_ORGANIZATION ( #169, #97, #12 ) ;
#128 = PERSON_AND_ORGANIZATION ( #150, #69 ) ;
#129 = CIRCLE ( 'NONE', #110, 1.099999999999999645 ) ;
#130 = DIRECTION ( 'NONE',  ( 1.000000000000000000, 0.0000000000000000000, 0.0000000000000000000 ) ) ;
#131 = CC_DESIGN_DATE_AND_TIME_ASSIGNMENT ( #14, #29, ( #138 ) ) ;
#132 = CARTESIAN_POINT ( 'NONE',  ( 1.592115490512469062E-13, 1.499999999999994005, 45.60000000000000142 ) ) ;
#133 = DIRECTION ( 'NONE',  ( -4.275831445896958607E-31, -1.000000000000000000, -1.224646799147353207E-16 ) ) ;
#134 = DIRECTION ( 'NONE',  ( -3.491481338843133355E-15, 1.224646799147353207E-16, -1.000000000000000000 ) ) ;
#135 = ADVANCED_FACE ( 'NONE', ( #143 ), #182, .T. ) ;
#136 = AXIS2_PLACEMENT_3D ( 'NONE', #115, #123, #17 ) ;
#137 = ORIENTED_EDGE ( 'NONE', *, *, #122, .T. ) ;
#138 = PRODUCT_DEFINITION ( 'UNKNOWN', '', #194, #21 ) ;
#139 = PERSON_AND_ORGANIZATION_ROLE ( 'design_owner' ) ;
#140 = ADVANCED_FACE ( 'NONE', ( #162 ), #1, .F. ) ;
#141 = PERSON_AND_ORGANIZATION ( #150, #69 ) ;
#142 = PRODUCT_RELATED_PRODUCT_CATEGORY ( 'detail', '', ( #25 ) ) ;
#143 = FACE_OUTER_BOUND ( 'NONE', #196, .T. ) ;
#144 = APPROVAL_DATE_TIME ( #96, #76 ) ;
#145 = DIRECTION ( 'NONE',  ( -3.491481338843133355E-15, 1.224646799147353207E-16, -1.000000000000000000 ) ) ;
#146 = APPROVAL_ROLE ( '' ) ;
#147 = CONICAL_SURFACE ( 'NONE', #136, 1.099999999999999645, 0.7853981633974512766 ) ;
#148 = ADVANCED_FACE ( 'NONE', ( #2, #54 ), #65, .T. ) ;
#149 = COORDINATED_UNIVERSAL_TIME_OFFSET ( 1, 0, .AHEAD. ) ;
#150 = PERSON ( 'UNSPECIFIED', 'UNSPECIFIED', 'UNSPECIFIED', ('UNSPECIFIED'), ('UNSPECIFIED'), ('UNSPECIFIED') ) ;
#151 = DIRECTION ( 'NONE',  ( 0.0000000000000000000, 1.000000000000000000, 0.0000000000000000000 ) ) ;
#152 = AXIS2_PLACEMENT_3D ( 'NONE', #180, #118, #40 ) ;
#153 = DIRECTION ( 'NONE',  ( -3.491481338843133355E-15, 1.224646799147353207E-16, -1.000000000000000000 ) ) ;
#154 = CC_DESIGN_APPROVAL ( #76, ( #85 ) ) ;
#155 = CARTESIAN_POINT ( 'NONE',  ( 2.442156729911752916E-15, -8.565932714661334512E-17, 0.6994614872325042310 ) ) ;
#156 = APPROVAL_ROLE ( '' ) ;
#157 = CALENDAR_DATE ( 2021, 6, 10 ) ;
#158 = APPROVAL_DATE_TIME ( #31, #28 ) ;
#159 = DIRECTION ( 'NONE',  ( -3.491481338843133355E-15, 1.224646799147353207E-16, -1.000000000000000000 ) ) ;
#160 = PLANE ( 'NONE',  #172 ) ;
#161 = DIRECTION ( 'NONE',  ( 4.275831445896958607E-31, 1.000000000000000000, 1.224646799147353207E-16 ) ) ;
#162 = FACE_OUTER_BOUND ( 'NONE', #126, .T. ) ;
#163 = ADVANCED_FACE ( 'NONE', ( #19, #5 ), #20, .T. ) ;
#164 = SHAPE_DEFINITION_REPRESENTATION ( #27, #107 ) ;
#165 = AXIS2_PLACEMENT_3D ( 'NONE', #155, #72, #56 ) ;
#166 = DIRECTION ( 'NONE',  ( -3.491481338843133355E-15, 1.224646799147353207E-16, -1.000000000000000000 ) ) ;
#167 = EDGE_LOOP ( 'NONE', ( #106 ) ) ;
#168 = CIRCLE ( 'NONE', #191, 1.499999999999996003 ) ;
#169 = PERSON_AND_ORGANIZATION ( #150, #69 ) ;
#170 = EDGE_CURVE ( 'NONE', #58, #58, #203, .T. ) ;
#171 = PERSON_AND_ORGANIZATION ( #150, #69 ) ;
#172 = AXIS2_PLACEMENT_3D ( 'NONE', #63, #88, #133 ) ;
#173 = CALENDAR_DATE ( 2021, 6, 10 ) ;
#174 = DIRECTION ( 'NONE',  ( 5.135813185032649669E-31, 1.000000000000000000, 1.445602896647345080E-16 ) ) ;
#175 = ADVANCED_FACE ( 'NONE', ( #109 ), #94, .T. ) ;
#176 = PERSON_AND_ORGANIZATION ( #150, #69 ) ;
#177 = DIRECTION ( 'NONE',  ( -3.491481338843133355E-15, 1.224646799147353207E-16, -1.000000000000000000 ) ) ;
#178 = EDGE_LOOP ( 'NONE', ( #187 ) ) ;
#179 = PERSON_AND_ORGANIZATION ( #150, #69 ) ;
#180 = CARTESIAN_POINT ( 'NONE',  ( 5.586370142149013368E-14, 1.124819836996387185E-32, 16.00000000000000000 ) ) ;
#181 = SECURITY_CLASSIFICATION_LEVEL ( 'unclassified' ) ;
#182 = PLANE ( 'NONE',  #152 ) ;
#183 = APPROVAL_STATUS ( 'not_yet_approved' ) ;
#184 =( GEOMETRIC_REPRESENTATION_CONTEXT ( 3 ) GLOBAL_UNCERTAINTY_ASSIGNED_CONTEXT ( ( #6 ) ) GLOBAL_UNIT_ASSIGNED_CONTEXT ( ( #190, #62, #46 ) ) REPRESENTATION_CONTEXT ( 'NONE', 'WORKASPACE' ) );
#185 = LOCAL_TIME ( 13, 26, 15.00000000000000000, #57 ) ;
#186 = ORIENTED_EDGE ( 'NONE', *, *, #84, .T. ) ;
#187 = ORIENTED_EDGE ( 'NONE', *, *, #122, .F. ) ;
#188 = AXIS2_PLACEMENT_3D ( 'NONE', #124, #153, #22 ) ;
#189 = DATE_AND_TIME ( #95, #48 ) ;
#190 =( LENGTH_UNIT ( ) NAMED_UNIT ( * ) SI_UNIT ( .MILLI., .METRE. ) );
#191 = AXIS2_PLACEMENT_3D ( 'NONE', #104, #166, #151 ) ;
#192 = CARTESIAN_POINT ( 'NONE',  ( 0.0000000000000000000, 0.0000000000000000000, 0.0000000000000000000 ) ) ;
#193 = CC_DESIGN_PERSON_AND_ORGANIZATION_ASSIGNMENT ( #111, #117, ( #138 ) ) ;
#194 = PRODUCT_DEFINITION_FORMATION_WITH_SPECIFIED_SOURCE ( 'ANY', '', #25, .NOT_KNOWN. ) ;
#195 = DIRECTION ( 'NONE',  ( 4.275831445896958607E-31, 1.000000000000000000, 1.224646799147353207E-16 ) ) ;
#196 = EDGE_LOOP ( 'NONE', ( #55 ) ) ;
#197 = CARTESIAN_POINT ( 'NONE',  ( 2.442156729911753705E-15, 1.499999999999994005, 0.6994614872325044530 ) ) ;
#198 = EDGE_LOOP ( 'NONE', ( #137 ) ) ;
#199 = LOCAL_TIME ( 13, 26, 15.00000000000000000, #16 ) ;
#200 = CARTESIAN_POINT ( 'NONE',  ( 1.606081415867841091E-13, 1.099999999999994094, 46.00000000000000000 ) ) ;
#201 = EDGE_CURVE ( 'NONE', #33, #33, #168, .T. ) ;
#202 = MECHANICAL_CONTEXT ( 'NONE', #103, 'mechanical' ) ;
#203 = CIRCLE ( 'NONE', #188, 1.499999999999999556 ) ;
ENDSEC;
END-ISO-10303-21;
