ISO-10303-21;
HEADER;
FILE_DESCRIPTION (( 'STEP AP203' ),
    '1' );
FILE_NAME ('35721.step',
    '2021-12-06T12:59:15',
    ( '' ),
    ( '' ),
    'SwSTEP 2.0',
    'SolidWorks 2019',
    '' );
FILE_SCHEMA (( 'CONFIG_CONTROL_DESIGN' ));
ENDSEC;

DATA;
#1 = APPROVAL_STATUS ( 'not_yet_approved' ) ;
#2 = AXIS2_PLACEMENT_3D ( 'NONE', #66, #122, #43 ) ;
#3 = APPROVAL_DATE_TIME ( #111, #28 ) ;
#4 = EDGE_LOOP ( 'NONE', ( #85 ) ) ;
#5 = COORDINATED_UNIVERSAL_TIME_OFFSET ( 1, 0, .AHEAD. ) ;
#6 = AXIS2_PLACEMENT_3D ( 'NONE', #162, #18, #90 ) ;
#7 = FACE_OUTER_BOUND ( 'NONE', #4, .T. ) ;
#8 = FACE_OUTER_BOUND ( 'NONE', #158, .T. ) ;
#9 = CARTESIAN_POINT ( 'NONE',  ( 5.237222008264697666E-15, 11.00000000000000000, 1.499999999999999334 ) ) ;
#10 = AXIS2_PLACEMENT_3D ( 'NONE', #77, #30, #80 ) ;
#11 = FACE_BOUND ( 'NONE', #102, .T. ) ;
#12 = DIRECTION ( 'NONE',  ( -3.491481338843133355E-15, 2.449293598294706538E-17, -1.000000000000000000 ) ) ;
#13 = CC_DESIGN_APPROVAL ( #108, ( #145 ) ) ;
#14 = APPROVAL_ROLE ( '' ) ;
#15 = CIRCLE ( 'NONE', #2, 40.00000000000000000 ) ;
#16 = FACE_OUTER_BOUND ( 'NONE', #73, .T. ) ;
#17 = CARTESIAN_POINT ( 'NONE',  ( 0.0000000000000000000, 11.00000000000000000, 0.0000000000000000000 ) ) ;
#18 = DIRECTION ( 'NONE',  ( -3.491481338843133355E-15, 2.449293598294706538E-17, -1.000000000000000000 ) ) ;
#19 = DIRECTION ( 'NONE',  ( 8.551662891793917432E-32, 1.000000000000000000, 2.449293598294706538E-17 ) ) ;
#20 = SECURITY_CLASSIFICATION ( '', '', #127 ) ;
#21 = DATE_TIME_ROLE ( 'classification_date' ) ;
#22 = APPROVAL_STATUS ( 'not_yet_approved' ) ;
#23 = EDGE_CURVE ( 'NONE', #64, #64, #15, .T. ) ;
#24 = COORDINATED_UNIVERSAL_TIME_OFFSET ( 1, 0, .AHEAD. ) ;
#25 = APPROVAL_ROLE ( '' ) ;
#26 = DESIGN_CONTEXT ( 'detailed design', #140, 'design' ) ;
#27 = ORIENTED_EDGE ( 'NONE', *, *, #48, .F. ) ;
#28 = APPROVAL ( #22, 'UNSPECIFIED' ) ;
#29 =( GEOMETRIC_REPRESENTATION_CONTEXT ( 3 ) GLOBAL_UNCERTAINTY_ASSIGNED_CONTEXT ( ( #101 ) ) GLOBAL_UNIT_ASSIGNED_CONTEXT ( ( #161, #45, #137 ) ) REPRESENTATION_CONTEXT ( 'NONE', 'WORKASPACE' ) );
#30 = DIRECTION ( 'NONE',  ( -3.491481338843133355E-15, 2.449293598294706538E-17, -1.000000000000000000 ) ) ;
#31 = CARTESIAN_POINT ( 'NONE',  ( 0.0000000000000000000, 0.0000000000000000000, 0.0000000000000000000 ) ) ;
#32 = LOCAL_TIME ( 13, 59, 15.00000000000000000, #24 ) ;
#33 = CARTESIAN_POINT ( 'NONE',  ( 0.0000000000000000000, 40.00000000000000000, 0.0000000000000000000 ) ) ;
#34 = CALENDAR_DATE ( 2021, 6, 12 ) ;
#35 = CC_DESIGN_PERSON_AND_ORGANIZATION_ASSIGNMENT ( #96, #70, ( #86 ) ) ;
#36 = EDGE_LOOP ( 'NONE', ( #157 ) ) ;
#37 = PRODUCT_RELATED_PRODUCT_CATEGORY ( 'detail', '', ( #81 ) ) ;
#38 = COORDINATED_UNIVERSAL_TIME_OFFSET ( 1, 0, .AHEAD. ) ;
#39 = ORIENTED_EDGE ( 'NONE', *, *, #23, .T. ) ;
#40 = APPROVAL_ROLE ( '' ) ;
#41 = FACE_BOUND ( 'NONE', #131, .T. ) ;
#42 = FACE_OUTER_BOUND ( 'NONE', #100, .T. ) ;
#43 = DIRECTION ( 'NONE',  ( 7.703719777548943412E-32, 1.000000000000000000, 2.710505431213761085E-17 ) ) ;
#44 = ADVANCED_FACE ( 'NONE', ( #42, #7 ), #120, .T. ) ;
#45 =( NAMED_UNIT ( * ) PLANE_ANGLE_UNIT ( ) SI_UNIT ( $, .RADIAN. ) );
#46 = CLOSED_SHELL ( 'NONE', ( #168, #44, #159, #89 ) ) ;
#47 = APPROVAL_DATE_TIME ( #69, #141 ) ;
#48 = EDGE_CURVE ( 'NONE', #106, #106, #59, .T. ) ;
#49 = PERSON_AND_ORGANIZATION_ROLE ( 'classification_officer' ) ;
#50 = ORIENTED_EDGE ( 'NONE', *, *, #23, .F. ) ;
#51 = VERTEX_POINT ( 'NONE', #118 ) ;
#52 = CALENDAR_DATE ( 2021, 6, 12 ) ;
#53 = CIRCLE ( 'NONE', #92, 11.00000000000000000 ) ;
#54 = CYLINDRICAL_SURFACE ( 'NONE', #10, 11.00000000000000000 ) ;
#55 = DIRECTION ( 'NONE',  ( -8.551662891793917432E-32, -1.000000000000000000, -2.449293598294706538E-17 ) ) ;
#56 = FACE_OUTER_BOUND ( 'NONE', #36, .T. ) ;
#57 = AXIS2_PLACEMENT_3D ( 'NONE', #91, #87, #19 ) ;
#58 = EDGE_CURVE ( 'NONE', #51, #51, #53, .T. ) ;
#59 = CIRCLE ( 'NONE', #6, 11.00000000000000000 ) ;
#60 = CALENDAR_DATE ( 2021, 6, 12 ) ;
#61 = APPROVAL_PERSON_ORGANIZATION ( #125, #108, #25 ) ;
#62 = CARTESIAN_POINT ( 'NONE',  ( -3.420665156717566885E-30, 2.399615652258972720E-32, -9.797174393178827630E-16 ) ) ;
#63 = APPLICATION_PROTOCOL_DEFINITION ( 'international standard', 'config_control_design', 1994, #140 ) ;
#64 = VERTEX_POINT ( 'NONE', #167 ) ;
#65 = DATE_AND_TIME ( #52, #146 ) ;
#66 = CARTESIAN_POINT ( 'NONE',  ( 5.237222008264695300E-15, -3.673940397442057033E-17, 1.499999999999998668 ) ) ;
#67 = APPLICATION_CONTEXT ( 'configuration controlled 3d designs of mechanical parts and assemblies' ) ;
#68 = AXIS2_PLACEMENT_3D ( 'NONE', #31, #139, #129 ) ;
#69 = DATE_AND_TIME ( #34, #75 ) ;
#70 = PERSON_AND_ORGANIZATION_ROLE ( 'design_supplier' ) ;
#71 = CC_DESIGN_DATE_AND_TIME_ASSIGNMENT ( #153, #21, ( #20 ) ) ;
#72 = APPROVAL_STATUS ( 'not_yet_approved' ) ;
#73 = EDGE_LOOP ( 'NONE', ( #50 ) ) ;
#74 = APPLICATION_PROTOCOL_DEFINITION ( 'international standard', 'config_control_design', 1994, #67 ) ;
#75 = LOCAL_TIME ( 13, 59, 15.00000000000000000, #38 ) ;
#76 = PLANE ( 'NONE',  #97 ) ;
#77 = CARTESIAN_POINT ( 'NONE',  ( 0.0000000000000000000, 0.0000000000000000000, 0.0000000000000000000 ) ) ;
#78 = DIRECTION ( 'NONE',  ( -3.491481338843133355E-15, 2.449293598294706538E-17, -1.000000000000000000 ) ) ;
#79 = CC_DESIGN_DATE_AND_TIME_ASSIGNMENT ( #65, #105, ( #145 ) ) ;
#80 = DIRECTION ( 'NONE',  ( 8.551662891793917432E-32, 1.000000000000000000, 2.449293598294706229E-17 ) ) ;
#81 = PRODUCT ( '35721', '35721', '', ( #130 ) ) ;
#82 = AXIS2_PLACEMENT_3D ( 'NONE', #62, #149, #150 ) ;
#83 = CALENDAR_DATE ( 2021, 6, 12 ) ;
#84 = DATE_AND_TIME ( #60, #163 ) ;
#85 = ORIENTED_EDGE ( 'NONE', *, *, #109, .F. ) ;
#86 = PRODUCT_DEFINITION_FORMATION_WITH_SPECIFIED_SOURCE ( 'ANY', '', #81, .NOT_KNOWN. ) ;
#87 = DIRECTION ( 'NONE',  ( -3.491481338843133355E-15, 2.449293598294706538E-17, -1.000000000000000000 ) ) ;
#88 = CC_DESIGN_SECURITY_CLASSIFICATION ( #20, ( #86 ) ) ;
#89 = ADVANCED_FACE ( 'NONE', ( #107, #8 ), #54, .F. ) ;
#90 = DIRECTION ( 'NONE',  ( 8.551662891793917432E-32, 1.000000000000000000, 2.449293598294706229E-17 ) ) ;
#91 = CARTESIAN_POINT ( 'NONE',  ( -1.239991119310118154E-30, 11.00000000000000000, -3.551475717527324818E-16 ) ) ;
#92 = AXIS2_PLACEMENT_3D ( 'NONE', #151, #12, #93 ) ;
#93 = DIRECTION ( 'NONE',  ( 7.003381615953584721E-32, 1.000000000000000000, 1.971276677246371642E-17 ) ) ;
#94 = ORGANIZATION ( 'UNSPECIFIED', 'UNSPECIFIED', '' ) ;
#95 = CALENDAR_DATE ( 2021, 6, 12 ) ;
#96 = PERSON_AND_ORGANIZATION ( #160, #94 ) ;
#97 = AXIS2_PLACEMENT_3D ( 'NONE', #9, #135, #55 ) ;
#98 = PERSON_AND_ORGANIZATION ( #160, #94 ) ;
#99 = ORIENTED_EDGE ( 'NONE', *, *, #48, .T. ) ;
#100 = EDGE_LOOP ( 'NONE', ( #39 ) ) ;
#101 = UNCERTAINTY_MEASURE_WITH_UNIT (LENGTH_MEASURE( 1.000000000000000082E-05 ), #161, 'distance_accuracy_value', 'NONE');
#102 = EDGE_LOOP ( 'NONE', ( #155 ) ) ;
#103 = APPROVAL_PERSON_ORGANIZATION ( #121, #28, #40 ) ;
#104 = DIRECTION ( 'NONE',  ( 8.551662891793917432E-32, 1.000000000000000000, 2.449293598294706846E-17 ) ) ;
#105 = DATE_TIME_ROLE ( 'creation_date' ) ;
#106 = VERTEX_POINT ( 'NONE', #17 ) ;
#107 = FACE_OUTER_BOUND ( 'NONE', #112, .T. ) ;
#108 = APPROVAL ( #72, 'UNSPECIFIED' ) ;
#109 = EDGE_CURVE ( 'NONE', #147, #147, #154, .T. ) ;
#110 = PERSON_AND_ORGANIZATION ( #160, #94 ) ;
#111 = DATE_AND_TIME ( #83, #32 ) ;
#112 = EDGE_LOOP ( 'NONE', ( #99 ) ) ;
#113 = CC_DESIGN_APPROVAL ( #141, ( #20 ) ) ;
#114 = ADVANCED_BREP_SHAPE_REPRESENTATION ( '35721', ( #132, #68 ), #29 ) ;
#115 = ORIENTED_EDGE ( 'NONE', *, *, #58, .F. ) ;
#116 = AXIS2_PLACEMENT_3D ( 'NONE', #166, #78, #104 ) ;
#117 = PERSON_AND_ORGANIZATION ( #160, #94 ) ;
#118 = CARTESIAN_POINT ( 'NONE',  ( 5.237222008264699244E-15, 11.00000000000000000, 1.499999999999999778 ) ) ;
#119 = COORDINATED_UNIVERSAL_TIME_OFFSET ( 1, 0, .AHEAD. ) ;
#120 = CYLINDRICAL_SURFACE ( 'NONE', #116, 40.00000000000000000 ) ;
#121 = PERSON_AND_ORGANIZATION ( #160, #94 ) ;
#122 = DIRECTION ( 'NONE',  ( -3.491481338843133355E-15, 2.449293598294706538E-17, -1.000000000000000000 ) ) ;
#123 = LOCAL_TIME ( 13, 59, 15.00000000000000000, #156 ) ;
#124 = PRODUCT_DEFINITION_SHAPE ( 'NONE', 'NONE',  #145 ) ;
#125 = PERSON_AND_ORGANIZATION ( #160, #94 ) ;
#126 = CC_DESIGN_APPROVAL ( #28, ( #86 ) ) ;
#127 = SECURITY_CLASSIFICATION_LEVEL ( 'unclassified' ) ;
#128 = CC_DESIGN_PERSON_AND_ORGANIZATION_ASSIGNMENT ( #142, #49, ( #20 ) ) ;
#129 = DIRECTION ( 'NONE',  ( 1.000000000000000000, 0.0000000000000000000, 0.0000000000000000000 ) ) ;
#130 = MECHANICAL_CONTEXT ( 'NONE', #67, 'mechanical' ) ;
#131 = EDGE_LOOP ( 'NONE', ( #27 ) ) ;
#132 = MANIFOLD_SOLID_BREP ( 'Corps-Déplacer/Copier1', #46 ) ;
#133 = CC_DESIGN_PERSON_AND_ORGANIZATION_ASSIGNMENT ( #117, #152, ( #145 ) ) ;
#134 = APPROVAL_DATE_TIME ( #84, #108 ) ;
#135 = DIRECTION ( 'NONE',  ( 3.491481338843133355E-15, -2.449293598294706538E-17, 1.000000000000000000 ) ) ;
#136 = CC_DESIGN_PERSON_AND_ORGANIZATION_ASSIGNMENT ( #164, #165, ( #81 ) ) ;
#137 =( NAMED_UNIT ( * ) SI_UNIT ( $, .STERADIAN. ) SOLID_ANGLE_UNIT ( ) );
#138 = PLANE ( 'NONE',  #57 ) ;
#139 = DIRECTION ( 'NONE',  ( 0.0000000000000000000, 0.0000000000000000000, 1.000000000000000000 ) ) ;
#140 = APPLICATION_CONTEXT ( 'configuration controlled 3d designs of mechanical parts and assemblies' ) ;
#141 = APPROVAL ( #1, 'UNSPECIFIED' ) ;
#142 = PERSON_AND_ORGANIZATION ( #160, #94 ) ;
#143 = SHAPE_DEFINITION_REPRESENTATION ( #124, #114 ) ;
#144 = PERSON_AND_ORGANIZATION_ROLE ( 'creator' ) ;
#145 = PRODUCT_DEFINITION ( 'UNKNOWN', '', #86, #26 ) ;
#146 = LOCAL_TIME ( 13, 59, 15.00000000000000000, #119 ) ;
#147 = VERTEX_POINT ( 'NONE', #33 ) ;
#148 = APPROVAL_PERSON_ORGANIZATION ( #98, #141, #14 ) ;
#149 = DIRECTION ( 'NONE',  ( -3.491481338843133355E-15, 2.449293598294706538E-17, -1.000000000000000000 ) ) ;
#150 = DIRECTION ( 'NONE',  ( 8.551662891793917432E-32, 1.000000000000000000, 2.449293598294706846E-17 ) ) ;
#151 = CARTESIAN_POINT ( 'NONE',  ( 5.237222008264698455E-15, -3.673940397442058882E-17, 1.499999999999999556 ) ) ;
#152 = PERSON_AND_ORGANIZATION_ROLE ( 'creator' ) ;
#153 = DATE_AND_TIME ( #95, #123 ) ;
#154 = CIRCLE ( 'NONE', #82, 40.00000000000000000 ) ;
#155 = ORIENTED_EDGE ( 'NONE', *, *, #58, .T. ) ;
#156 = COORDINATED_UNIVERSAL_TIME_OFFSET ( 1, 0, .AHEAD. ) ;
#157 = ORIENTED_EDGE ( 'NONE', *, *, #109, .T. ) ;
#158 = EDGE_LOOP ( 'NONE', ( #115 ) ) ;
#159 = ADVANCED_FACE ( 'NONE', ( #11, #16 ), #76, .T. ) ;
#160 = PERSON ( 'UNSPECIFIED', 'UNSPECIFIED', 'UNSPECIFIED', ('UNSPECIFIED'), ('UNSPECIFIED'), ('UNSPECIFIED') ) ;
#161 =( LENGTH_UNIT ( ) NAMED_UNIT ( * ) SI_UNIT ( .MILLI., .METRE. ) );
#162 = CARTESIAN_POINT ( 'NONE',  ( -9.406829180973309285E-31, 6.598943043712173748E-33, -2.694222958124177006E-16 ) ) ;
#163 = LOCAL_TIME ( 13, 59, 15.00000000000000000, #5 ) ;
#164 = PERSON_AND_ORGANIZATION ( #160, #94 ) ;
#165 = PERSON_AND_ORGANIZATION_ROLE ( 'design_owner' ) ;
#166 = CARTESIAN_POINT ( 'NONE',  ( 0.0000000000000000000, 0.0000000000000000000, 0.0000000000000000000 ) ) ;
#167 = CARTESIAN_POINT ( 'NONE',  ( 5.237222008264698455E-15, 40.00000000000000000, 1.499999999999999778 ) ) ;
#168 = ADVANCED_FACE ( 'NONE', ( #56, #41 ), #138, .T. ) ;
#169 = CC_DESIGN_PERSON_AND_ORGANIZATION_ASSIGNMENT ( #110, #144, ( #86 ) ) ;
ENDSEC;
END-ISO-10303-21;
