ISO-10303-21;
HEADER;
FILE_DESCRIPTION (( 'STEP AP203' ),
    '1' );
FILE_NAME ('35709.step',
    '2021-11-12T06:57:04',
    ( '' ),
    ( '' ),
    'SwSTEP 2.0',
    'SolidWorks 2019',
    '' );
FILE_SCHEMA (( 'CONFIG_CONTROL_DESIGN' ));
ENDSEC;

DATA;
#1 = DATE_AND_TIME ( #94, #167 ) ;
#2 = APPROVAL_ROLE ( '' ) ;
#3 = DIRECTION ( 'NONE',  ( -3.491481338843133355E-15, 1.224646799147353207E-16, -1.000000000000000000 ) ) ;
#4 = CARTESIAN_POINT ( 'NONE',  ( 4.672278441155444480E-14, -2.148468869694288975E-15, 13.38193731461717029 ) ) ;
#5 = CARTESIAN_POINT ( 'NONE',  ( 0.0000000000000000000, 0.0000000000000000000, 0.0000000000000000000 ) ) ;
#6 = ORIENTED_EDGE ( 'NONE', *, *, #15, .F. ) ;
#7 = DIRECTION ( 'NONE',  ( 3.491481338843133355E-15, -1.224646799147353207E-16, 1.000000000000000000 ) ) ;
#8 = EDGE_CURVE ( 'NONE', #202, #202, #125, .T. ) ;
#9 = DATE_AND_TIME ( #127, #117 ) ;
#10 = DIRECTION ( 'NONE',  ( -4.275831445896958607E-31, -1.000000000000000000, -1.224646799147353207E-16 ) ) ;
#11 = ORIENTED_EDGE ( 'NONE', *, *, #171, .F. ) ;
#12 = MANIFOLD_SOLID_BREP ( 'Corps-Déplacer/Copier1[2]', #24 ) ;
#13 = PLANE ( 'NONE',  #109 ) ;
#14 = CLOSED_SHELL ( 'NONE', ( #84, #221, #132, #142, #89 ) ) ;
#15 = EDGE_CURVE ( 'NONE', #122, #122, #95, .T. ) ;
#16 = EDGE_LOOP ( 'NONE', ( #166 ) ) ;
#17 = ORIENTED_EDGE ( 'NONE', *, *, #171, .T. ) ;
#18 = ORIENTED_EDGE ( 'NONE', *, *, #164, .F. ) ;
#19 = APPLICATION_CONTEXT ( 'configuration controlled 3d designs of mechanical parts and assemblies' ) ;
#20 = CC_DESIGN_APPROVAL ( #72, ( #215 ) ) ;
#21 = EDGE_LOOP ( 'NONE', ( #6 ) ) ;
#22 = FACE_BOUND ( 'NONE', #87, .T. ) ;
#23 = COORDINATED_UNIVERSAL_TIME_OFFSET ( 1, 0, .AHEAD. ) ;
#24 = CLOSED_SHELL ( 'NONE', ( #184, #45, #153, #141 ) ) ;
#25 = CARTESIAN_POINT ( 'NONE',  ( 2.250000000000000444, 0.0000000000000000000, 0.09999999999999215072 ) ) ;
#26 = DIRECTION ( 'NONE',  ( 0.0000000000000000000, 1.000000000000000000, 0.0000000000000000000 ) ) ;
#27 = DIRECTION ( 'NONE',  ( 3.491481338843133355E-15, -1.223397583181748052E-16, 1.000000000000000000 ) ) ;
#28 = DATE_AND_TIME ( #113, #200 ) ;
#29 = EDGE_LOOP ( 'NONE', ( #197 ) ) ;
#30 = LOCAL_TIME ( 7, 57, 4.000000000000000000, #211 ) ;
#31 = CARTESIAN_POINT ( 'NONE',  ( 1.724791781388508004E-13, 2.999999999999995559, 49.39999999999999858 ) ) ;
#32 = APPROVAL ( #159, 'UNSPECIFIED' ) ;
#33 = FACE_OUTER_BOUND ( 'NONE', #204, .T. ) ;
#34 = CC_DESIGN_PERSON_AND_ORGANIZATION_ASSIGNMENT ( #225, #205, ( #215 ) ) ;
#35 = ORIENTED_EDGE ( 'NONE', *, *, #91, .T. ) ;
#36 = CARTESIAN_POINT ( 'NONE',  ( -6.413747168845438786E-31, 2.249639673992786412E-32, -1.836970198721029934E-16 ) ) ;
#37 = AXIS2_PLACEMENT_3D ( 'NONE', #146, #222, #55 ) ;
#38 = DIRECTION ( 'NONE',  ( -4.271469831664862602E-31, -1.000000000000000000, -1.223397583181747805E-16 ) ) ;
#39 = PERSON_AND_ORGANIZATION ( #63, #183 ) ;
#40 = CARTESIAN_POINT ( 'NONE',  ( 1.745740669421566678E-13, -6.123233995736766085E-15, 50.00000000000000000 ) ) ;
#41 = AXIS2_PLACEMENT_3D ( 'NONE', #179, #7, #10 ) ;
#42 =( NAMED_UNIT ( * ) SI_UNIT ( $, .STERADIAN. ) SOLID_ANGLE_UNIT ( ) );
#43 = DIRECTION ( 'NONE',  ( 3.491481338843133355E-15, -1.223397583181748052E-16, 1.000000000000000000 ) ) ;
#44 =( NAMED_UNIT ( * ) PLANE_ANGLE_UNIT ( ) SI_UNIT ( $, .RADIAN. ) );
#45 = ADVANCED_FACE ( 'NONE', ( #112 ), #228, .T. ) ;
#46 = APPROVAL_DATE_TIME ( #193, #216 ) ;
#47 = DIRECTION ( 'NONE',  ( 3.491481338843133355E-15, -1.223397583181748052E-16, 1.000000000000000000 ) ) ;
#48 = EDGE_LOOP ( 'NONE', ( #11 ) ) ;
#49 = CARTESIAN_POINT ( 'NONE',  ( 1.745740669421566678E-13, 2.399999999999995914, 50.00000000000000000 ) ) ;
#50 = CARTESIAN_POINT ( 'NONE',  ( 1.745740669421566678E-13, 1.799711739194221740E-32, 50.00000000000000000 ) ) ;
#51 = EDGE_CURVE ( 'NONE', #66, #66, #185, .T. ) ;
#52 = FACE_OUTER_BOUND ( 'NONE', #21, .T. ) ;
#53 = AXIS2_PLACEMENT_3D ( 'NONE', #175, #47, #139 ) ;
#54 = EDGE_LOOP ( 'NONE', ( #88 ) ) ;
#55 = DIRECTION ( 'NONE',  ( 0.0000000000000000000, 1.000000000000000000, 0.0000000000000000000 ) ) ;
#56 = DIRECTION ( 'NONE',  ( 3.491481338843133355E-15, -1.223397583181748052E-16, 1.000000000000000000 ) ) ;
#57 = LOCAL_TIME ( 7, 57, 4.000000000000000000, #138 ) ;
#58 = PERSON_AND_ORGANIZATION ( #63, #183 ) ;
#59 = COORDINATED_UNIVERSAL_TIME_OFFSET ( 1, 0, .AHEAD. ) ;
#60 = SECURITY_CLASSIFICATION_LEVEL ( 'unclassified' ) ;
#61 = VERTEX_POINT ( 'NONE', #25 ) ;
#62 = ORIENTED_EDGE ( 'NONE', *, *, #123, .T. ) ;
#63 = PERSON ( 'UNSPECIFIED', 'UNSPECIFIED', 'UNSPECIFIED', ('UNSPECIFIED'), ('UNSPECIFIED'), ('UNSPECIFIED') ) ;
#64 = APPROVAL_ROLE ( '' ) ;
#65 = CARTESIAN_POINT ( 'NONE',  ( -4.731839565957903391E-32, 0.0000000000000000000, -1.355252715606880543E-17 ) ) ;
#66 = VERTEX_POINT ( 'NONE', #157 ) ;
#67 = CARTESIAN_POINT ( 'NONE',  ( 3.491481338843133355E-16, 0.0000000000000000000, 0.1000000000000000056 ) ) ;
#68 = TOROIDAL_SURFACE ( 'NONE', #206, 10.25000000000000000, 8.000000000000000000 ) ;
#69 = FACE_BOUND ( 'NONE', #213, .T. ) ;
#70 = CONICAL_SURFACE ( 'NONE', #234, 2.250000000000000000, 0.7853981633974495002 ) ;
#71 = FACE_OUTER_BOUND ( 'NONE', #116, .T. ) ;
#72 = APPROVAL ( #75, 'UNSPECIFIED' ) ;
#73 = AXIS2_PLACEMENT_3D ( 'NONE', #5, #152, #78 ) ;
#74 = DATE_TIME_ROLE ( 'classification_date' ) ;
#75 = APPROVAL_STATUS ( 'not_yet_approved' ) ;
#76 = AXIS2_PLACEMENT_3D ( 'NONE', #173, #148, #38 ) ;
#77 = PERSON_AND_ORGANIZATION ( #63, #183 ) ;
#78 = DIRECTION ( 'NONE',  ( 4.275831445896958607E-31, 1.000000000000000000, 1.224646799147353207E-16 ) ) ;
#79 = DIRECTION ( 'NONE',  ( 3.491481338843133355E-15, -1.224646799147353207E-16, 1.000000000000000000 ) ) ;
#80 = CALENDAR_DATE ( 2021, 12, 11 ) ;
#81 = CARTESIAN_POINT ( 'NONE',  ( 2.149999999999999467, 0.0000000000000000000, -7.520237405668803942E-15 ) ) ;
#82 = DIRECTION ( 'NONE',  ( -3.491481338843133355E-15, 1.224646799147353207E-16, -1.000000000000000000 ) ) ;
#83 = ADVANCED_BREP_SHAPE_REPRESENTATION ( '35709', ( #169, #12, #226 ), #188 ) ;
#84 = ADVANCED_FACE ( 'NONE', ( #111, #209 ), #99, .T. ) ;
#85 = ORIENTED_EDGE ( 'NONE', *, *, #8, .F. ) ;
#86 = PRODUCT ( '35709', '35709', '', ( #149 ) ) ;
#87 = EDGE_LOOP ( 'NONE', ( #17 ) ) ;
#88 = ORIENTED_EDGE ( 'NONE', *, *, #8, .T. ) ;
#89 = ADVANCED_FACE ( 'NONE', ( #128 ), #155, .F. ) ;
#90 = DIRECTION ( 'NONE',  ( 4.275831445896958607E-31, 1.000000000000000000, 1.224646799147353207E-16 ) ) ;
#91 = EDGE_CURVE ( 'NONE', #232, #232, #212, .T. ) ;
#92 = EDGE_LOOP ( 'NONE', ( #134 ) ) ;
#93 = FACE_OUTER_BOUND ( 'NONE', #189, .T. ) ;
#94 = CALENDAR_DATE ( 2021, 12, 11 ) ;
#95 = CIRCLE ( 'NONE', #147, 2.250000000000000000 ) ;
#96 = CARTESIAN_POINT ( 'NONE',  ( 3.491481338843133355E-14, 2.249639673992784496E-32, 10.00000000000000000 ) ) ;
#97 = CC_DESIGN_APPROVAL ( #216, ( #144 ) ) ;
#98 = DIRECTION ( 'NONE',  ( 1.000000000000000000, 0.0000000000000000000, 0.0000000000000000000 ) ) ;
#99 = CYLINDRICAL_SURFACE ( 'NONE', #73, 3.000000000000000888 ) ;
#100 = PERSON_AND_ORGANIZATION ( #63, #183 ) ;
#101 = CC_DESIGN_PERSON_AND_ORGANIZATION_ASSIGNMENT ( #207, #156, ( #215 ) ) ;
#102 = ORIENTED_EDGE ( 'NONE', *, *, #51, .T. ) ;
#103 = VERTEX_POINT ( 'NONE', #154 ) ;
#104 = APPROVAL_PERSON_ORGANIZATION ( #174, #72, #2 ) ;
#105 = PLANE ( 'NONE',  #182 ) ;
#106 = DIRECTION ( 'NONE',  ( -4.329673216658308606E-31, -1.000000000000000000, -1.223397583181748052E-16 ) ) ;
#107 = FACE_OUTER_BOUND ( 'NONE', #118, .T. ) ;
#108 =( LENGTH_UNIT ( ) NAMED_UNIT ( * ) SI_UNIT ( .MILLI., .METRE. ) );
#109 = AXIS2_PLACEMENT_3D ( 'NONE', #50, #240, #90 ) ;
#110 = PERSON_AND_ORGANIZATION_ROLE ( 'design_owner' ) ;
#111 = FACE_OUTER_BOUND ( 'NONE', #54, .T. ) ;
#112 = FACE_OUTER_BOUND ( 'NONE', #29, .T. ) ;
#113 = CALENDAR_DATE ( 2021, 12, 11 ) ;
#114 = CC_DESIGN_DATE_AND_TIME_ASSIGNMENT ( #28, #210, ( #144 ) ) ;
#115 = APPLICATION_PROTOCOL_DEFINITION ( 'international standard', 'config_control_design', 1994, #120 ) ;
#116 = EDGE_LOOP ( 'NONE', ( #62 ) ) ;
#117 = LOCAL_TIME ( 7, 57, 4.000000000000000000, #227 ) ;
#118 = EDGE_LOOP ( 'NONE', ( #85 ) ) ;
#119 = CIRCLE ( 'NONE', #160, 2.250000000000000000 ) ;
#120 = APPLICATION_CONTEXT ( 'configuration controlled 3d designs of mechanical parts and assemblies' ) ;
#121 = DATE_AND_TIME ( #135, #57 ) ;
#122 = VERTEX_POINT ( 'NONE', #165 ) ;
#123 = EDGE_CURVE ( 'NONE', #103, #103, #191, .T. ) ;
#124 = CARTESIAN_POINT ( 'NONE',  ( 3.491481338843133355E-16, 0.0000000000000000000, 0.1000000000000000056 ) ) ;
#125 = CIRCLE ( 'NONE', #218, 3.000000000000001776 ) ;
#126 = FACE_OUTER_BOUND ( 'NONE', #181, .T. ) ;
#127 = CALENDAR_DATE ( 2021, 12, 11 ) ;
#128 = FACE_OUTER_BOUND ( 'NONE', #16, .T. ) ;
#129 = DIRECTION ( 'NONE',  ( 0.0000000000000000000, 1.000000000000000000, 0.0000000000000000000 ) ) ;
#130 = PERSON_AND_ORGANIZATION_ROLE ( 'classification_officer' ) ;
#131 = PERSON_AND_ORGANIZATION_ROLE ( 'creator' ) ;
#132 = ADVANCED_FACE ( 'NONE', ( #136 ), #13, .F. ) ;
#133 = APPROVAL_DATE_TIME ( #9, #72 ) ;
#134 = ORIENTED_EDGE ( 'NONE', *, *, #91, .F. ) ;
#135 = CALENDAR_DATE ( 2021, 12, 11 ) ;
#136 = FACE_OUTER_BOUND ( 'NONE', #92, .T. ) ;
#137 = CARTESIAN_POINT ( 'NONE',  ( 3.491481338843132724E-14, -1.223397583181747953E-15, 9.999999999999998224 ) ) ;
#138 = COORDINATED_UNIVERSAL_TIME_OFFSET ( 1, 0, .AHEAD. ) ;
#139 = DIRECTION ( 'NONE',  ( 0.0000000000000000000, -1.000000000000000000, 0.0000000000000000000 ) ) ;
#140 = APPROVAL_PERSON_ORGANIZATION ( #58, #32, #64 ) ;
#141 = ADVANCED_FACE ( 'NONE', ( #220 ), #105, .T. ) ;
#142 = ADVANCED_FACE ( 'NONE', ( #93, #71 ), #68, .F. ) ;
#143 = DIRECTION ( 'NONE',  ( 3.491481338843133355E-15, -0.0000000000000000000, 1.000000000000000000 ) ) ;
#144 = PRODUCT_DEFINITION ( 'UNKNOWN', '', #215, #201 ) ;
#145 = AXIS2_PLACEMENT_3D ( 'NONE', #65, #143, #217 ) ;
#146 = CARTESIAN_POINT ( 'NONE',  ( 1.724791781388508004E-13, -6.049755187787925154E-15, 49.39999999999999858 ) ) ;
#147 = AXIS2_PLACEMENT_3D ( 'NONE', #137, #27, #177 ) ;
#148 = DIRECTION ( 'NONE',  ( 3.491481338843133355E-15, -1.223397583181748052E-16, 1.000000000000000000 ) ) ;
#149 = MECHANICAL_CONTEXT ( 'NONE', #19, 'mechanical' ) ;
#150 = UNCERTAINTY_MEASURE_WITH_UNIT (LENGTH_MEASURE( 1.000000000000000082E-05 ), #108, 'distance_accuracy_value', 'NONE');
#151 = APPROVAL_STATUS ( 'not_yet_approved' ) ;
#152 = DIRECTION ( 'NONE',  ( -3.491481338843133355E-15, 1.224646799147353207E-16, -1.000000000000000000 ) ) ;
#153 = ADVANCED_FACE ( 'NONE', ( #22, #33 ), #70, .T. ) ;
#154 = CARTESIAN_POINT ( 'NONE',  ( 3.491481338843132724E-14, -2.250000000000001332, 9.999999999999998224 ) ) ;
#155 = PLANE ( 'NONE',  #41 ) ;
#156 = PERSON_AND_ORGANIZATION_ROLE ( 'design_supplier' ) ;
#157 = CARTESIAN_POINT ( 'NONE',  ( 4.672278441155444480E-14, 2.999999999999998668, 13.38193731461717029 ) ) ;
#158 = AXIS2_PLACEMENT_3D ( 'NONE', #40, #3, #26 ) ;
#159 = APPROVAL_STATUS ( 'not_yet_approved' ) ;
#160 = AXIS2_PLACEMENT_3D ( 'NONE', #67, #236, #186 ) ;
#161 = APPROVAL_DATE_TIME ( #121, #32 ) ;
#162 = DIRECTION ( 'NONE',  ( 3.491481338843133355E-15, -0.0000000000000000000, 1.000000000000000000 ) ) ;
#163 = CC_DESIGN_DATE_AND_TIME_ASSIGNMENT ( #1, #74, ( #224 ) ) ;
#164 = EDGE_CURVE ( 'NONE', #61, #61, #119, .T. ) ;
#165 = CARTESIAN_POINT ( 'NONE',  ( 3.491481338843132724E-14, -2.250000000000001332, 9.999999999999998224 ) ) ;
#166 = ORIENTED_EDGE ( 'NONE', *, *, #123, .F. ) ;
#167 = LOCAL_TIME ( 7, 57, 4.000000000000000000, #23 ) ;
#168 = DIRECTION ( 'NONE',  ( 4.275831445896958607E-31, 1.000000000000000000, 1.224646799147353207E-16 ) ) ;
#169 = MANIFOLD_SOLID_BREP ( 'Corps-Déplacer/Copier1[1]', #14 ) ;
#170 = PRODUCT_DEFINITION_SHAPE ( 'NONE', 'NONE',  #144 ) ;
#171 = EDGE_CURVE ( 'NONE', #229, #229, #241, .T. ) ;
#172 = PRODUCT_RELATED_PRODUCT_CATEGORY ( 'detail', '', ( #86 ) ) ;
#173 = CARTESIAN_POINT ( 'NONE',  ( 0.0000000000000000000, 0.0000000000000000000, 0.0000000000000000000 ) ) ;
#174 = PERSON_AND_ORGANIZATION ( #63, #183 ) ;
#175 = CARTESIAN_POINT ( 'NONE',  ( 3.491481338843132724E-14, -1.223397583181747953E-15, 9.999999999999998224 ) ) ;
#176 = DIRECTION ( 'NONE',  ( 0.0000000000000000000, 0.0000000000000000000, 1.000000000000000000 ) ) ;
#177 = DIRECTION ( 'NONE',  ( 0.0000000000000000000, -1.000000000000000000, 0.0000000000000000000 ) ) ;
#178 = APPLICATION_PROTOCOL_DEFINITION ( 'international standard', 'config_control_design', 1994, #19 ) ;
#179 = CARTESIAN_POINT ( 'NONE',  ( 3.491481338843133355E-14, 2.249639673992784496E-32, 10.00000000000000000 ) ) ;
#180 = PERSON_AND_ORGANIZATION ( #63, #183 ) ;
#181 = EDGE_LOOP ( 'NONE', ( #187 ) ) ;
#182 = AXIS2_PLACEMENT_3D ( 'NONE', #36, #203, #168 ) ;
#183 = ORGANIZATION ( 'UNSPECIFIED', 'UNSPECIFIED', '' ) ;
#184 = ADVANCED_FACE ( 'NONE', ( #52, #126 ), #243, .T. ) ;
#185 = CIRCLE ( 'NONE', #231, 3.000000000000000888 ) ;
#186 = DIRECTION ( 'NONE',  ( 1.000000000000000000, 0.0000000000000000000, -3.493540333564403220E-15 ) ) ;
#187 = ORIENTED_EDGE ( 'NONE', *, *, #164, .T. ) ;
#188 =( GEOMETRIC_REPRESENTATION_CONTEXT ( 3 ) GLOBAL_UNCERTAINTY_ASSIGNED_CONTEXT ( ( #150 ) ) GLOBAL_UNIT_ASSIGNED_CONTEXT ( ( #108, #44, #42 ) ) REPRESENTATION_CONTEXT ( 'NONE', 'WORKASPACE' ) );
#189 = EDGE_LOOP ( 'NONE', ( #230 ) ) ;
#190 = CC_DESIGN_APPROVAL ( #32, ( #224 ) ) ;
#191 = CIRCLE ( 'NONE', #53, 2.250000000000000000 ) ;
#192 = CARTESIAN_POINT ( 'NONE',  ( 0.0000000000000000000, 0.0000000000000000000, 0.0000000000000000000 ) ) ;
#193 = DATE_AND_TIME ( #80, #30 ) ;
#194 = APPROVAL_ROLE ( '' ) ;
#195 = AXIS2_PLACEMENT_3D ( 'NONE', #96, #79, #208 ) ;
#196 = CARTESIAN_POINT ( 'NONE',  ( 1.724791781388508004E-13, -6.049755187787925154E-15, 49.39999999999999858 ) ) ;
#197 = ORIENTED_EDGE ( 'NONE', *, *, #15, .T. ) ;
#198 = SHAPE_DEFINITION_REPRESENTATION ( #170, #83 ) ;
#199 = CC_DESIGN_PERSON_AND_ORGANIZATION_ASSIGNMENT ( #180, #131, ( #144 ) ) ;
#200 = LOCAL_TIME ( 7, 57, 4.000000000000000000, #59 ) ;
#201 = DESIGN_CONTEXT ( 'detailed design', #120, 'design' ) ;
#202 = VERTEX_POINT ( 'NONE', #31 ) ;
#203 = DIRECTION ( 'NONE',  ( -3.491481338843133355E-15, 1.224646799147353207E-16, -1.000000000000000000 ) ) ;
#204 = EDGE_LOOP ( 'NONE', ( #18 ) ) ;
#205 = PERSON_AND_ORGANIZATION_ROLE ( 'creator' ) ;
#206 = AXIS2_PLACEMENT_3D ( 'NONE', #223, #56, #106 ) ;
#207 = PERSON_AND_ORGANIZATION ( #63, #183 ) ;
#208 = DIRECTION ( 'NONE',  ( -4.275831445896958607E-31, -1.000000000000000000, -1.224646799147353207E-16 ) ) ;
#209 = FACE_OUTER_BOUND ( 'NONE', #242, .T. ) ;
#210 = DATE_TIME_ROLE ( 'creation_date' ) ;
#211 = COORDINATED_UNIVERSAL_TIME_OFFSET ( 1, 0, .AHEAD. ) ;
#212 = CIRCLE ( 'NONE', #158, 2.400000000000002132 ) ;
#213 = EDGE_LOOP ( 'NONE', ( #35 ) ) ;
#214 = CC_DESIGN_PERSON_AND_ORGANIZATION_ASSIGNMENT ( #100, #130, ( #224 ) ) ;
#215 = PRODUCT_DEFINITION_FORMATION_WITH_SPECIFIED_SOURCE ( 'ANY', '', #86, .NOT_KNOWN. ) ;
#216 = APPROVAL ( #151, 'UNSPECIFIED' ) ;
#217 = DIRECTION ( 'NONE',  ( 1.000000000000000000, 0.0000000000000000000, -3.491481338843133355E-15 ) ) ;
#218 = AXIS2_PLACEMENT_3D ( 'NONE', #196, #82, #233 ) ;
#219 = CC_DESIGN_SECURITY_CLASSIFICATION ( #224, ( #215 ) ) ;
#220 = FACE_OUTER_BOUND ( 'NONE', #48, .T. ) ;
#221 = ADVANCED_FACE ( 'NONE', ( #69, #107 ), #238, .T. ) ;
#222 = DIRECTION ( 'NONE',  ( -3.491481338843133355E-15, 1.224646799147353207E-16, -1.000000000000000000 ) ) ;
#223 = CARTESIAN_POINT ( 'NONE',  ( 3.491481338843132724E-14, -1.734723475976807094E-15, 9.999999999999998224 ) ) ;
#224 = SECURITY_CLASSIFICATION ( '', '', #60 ) ;
#225 = PERSON_AND_ORGANIZATION ( #63, #183 ) ;
#226 = AXIS2_PLACEMENT_3D ( 'NONE', #192, #176, #98 ) ;
#227 = COORDINATED_UNIVERSAL_TIME_OFFSET ( 1, 0, .AHEAD. ) ;
#228 = PLANE ( 'NONE',  #195 ) ;
#229 = VERTEX_POINT ( 'NONE', #81 ) ;
#230 = ORIENTED_EDGE ( 'NONE', *, *, #51, .F. ) ;
#231 = AXIS2_PLACEMENT_3D ( 'NONE', #4, #43, #129 ) ;
#232 = VERTEX_POINT ( 'NONE', #49 ) ;
#233 = DIRECTION ( 'NONE',  ( 0.0000000000000000000, 1.000000000000000000, 0.0000000000000000000 ) ) ;
#234 = AXIS2_PLACEMENT_3D ( 'NONE', #124, #162, #235 ) ;
#235 = DIRECTION ( 'NONE',  ( 1.000000000000000000, 0.0000000000000000000, -3.493540333564403220E-15 ) ) ;
#236 = DIRECTION ( 'NONE',  ( 3.491481338843133355E-15, -0.0000000000000000000, 1.000000000000000000 ) ) ;
#237 = APPROVAL_PERSON_ORGANIZATION ( #39, #216, #194 ) ;
#238 = CONICAL_SURFACE ( 'NONE', #37, 3.000000000000001776, 0.7853981633974453924 ) ;
#239 = CC_DESIGN_PERSON_AND_ORGANIZATION_ASSIGNMENT ( #77, #110, ( #86 ) ) ;
#240 = DIRECTION ( 'NONE',  ( -3.491481338843133355E-15, 1.224646799147353207E-16, -1.000000000000000000 ) ) ;
#241 = CIRCLE ( 'NONE', #145, 2.149999999999999467 ) ;
#242 = EDGE_LOOP ( 'NONE', ( #102 ) ) ;
#243 = CYLINDRICAL_SURFACE ( 'NONE', #76, 2.250000000000000000 ) ;
ENDSEC;
END-ISO-10303-21;
