ISO-10303-21;
HEADER;
FILE_DESCRIPTION (( 'STEP AP203' ),
    '1' );
FILE_NAME ('35708.step',
    '2021-10-07T13:46:34',
    ( '' ),
    ( '' ),
    'SwSTEP 2.0',
    'SolidWorks 2019',
    '' );
FILE_SCHEMA (( 'CONFIG_CONTROL_DESIGN' ));
ENDSEC;

DATA;
#1 =( LENGTH_UNIT ( ) NAMED_UNIT ( * ) SI_UNIT ( .MILLI., .METRE. ) );
#2 = APPLICATION_CONTEXT ( 'configuration controlled 3d designs of mechanical parts and assemblies' ) ;
#3 = CALENDAR_DATE ( 2021, 7, 10 ) ;
#4 = CLOSED_SHELL ( 'NONE', ( #58, #52, #205, #45, #173 ) ) ;
#5 = APPROVAL_ROLE ( '' ) ;
#6 = EDGE_CURVE ( 'NONE', #156, #156, #96, .T. ) ;
#7 = PERSON_AND_ORGANIZATION_ROLE ( 'classification_officer' ) ;
#8 = AXIS2_PLACEMENT_3D ( 'NONE', #219, #168, #166 ) ;
#9 = EDGE_LOOP ( 'NONE', ( #163 ) ) ;
#10 = ORIENTED_EDGE ( 'NONE', *, *, #44, .T. ) ;
#11 = LOCAL_TIME ( 15, 46, 34.00000000000000000, #140 ) ;
#12 = DESIGN_CONTEXT ( 'detailed design', #197, 'design' ) ;
#13 = DATE_AND_TIME ( #162, #179 ) ;
#14 = EDGE_LOOP ( 'NONE', ( #26 ) ) ;
#15 = AXIS2_PLACEMENT_3D ( 'NONE', #203, #47, #152 ) ;
#16 = DIRECTION ( 'NONE',  ( 3.491481338843133355E-15, -1.224646799147353207E-16, 1.000000000000000000 ) ) ;
#17 = DIRECTION ( 'NONE',  ( 4.275831445896958607E-31, 1.000000000000000000, 1.224646799147353207E-16 ) ) ;
#18 = AXIS2_PLACEMENT_3D ( 'NONE', #46, #136, #221 ) ;
#19 = CARTESIAN_POINT ( 'NONE',  ( 1.043952920314096936E-13, -3.661693929450586610E-15, 29.90000000000000213 ) ) ;
#20 = CALENDAR_DATE ( 2021, 7, 10 ) ;
#21 = CARTESIAN_POINT ( 'NONE',  ( 1.043952920314096936E-13, 0.4999999999999954481, 29.90000000000000213 ) ) ;
#22 = APPROVAL_DATE_TIME ( #161, #130 ) ;
#23 = APPROVAL ( #38, 'UNSPECIFIED' ) ;
#24 = ADVANCED_FACE ( 'NONE', ( #147, #213 ), #79, .T. ) ;
#25 = AXIS2_PLACEMENT_3D ( 'NONE', #105, #55, #120 ) ;
#26 = ORIENTED_EDGE ( 'NONE', *, *, #149, .T. ) ;
#27 = ORIENTED_EDGE ( 'NONE', *, *, #6, .F. ) ;
#28 = DIRECTION ( 'NONE',  ( 3.491481338843133355E-15, -1.224646799147353207E-16, 1.000000000000000000 ) ) ;
#29 = DIRECTION ( 'NONE',  ( -4.697390108261584975E-31, -1.000000000000000000, -1.322197771323795497E-16 ) ) ;
#30 = CARTESIAN_POINT ( 'NONE',  ( 6.982962677686266711E-15, 1.537253777228390808E-33, 2.000000000000000000 ) ) ;
#31 = DIRECTION ( 'NONE',  ( 0.0000000000000000000, -1.000000000000000000, 0.0000000000000000000 ) ) ;
#32 = APPROVAL_ROLE ( '' ) ;
#33 = CIRCLE ( 'NONE', #124, 0.2049999999999985167 ) ;
#34 = VERTEX_POINT ( 'NONE', #195 ) ;
#35 = EDGE_CURVE ( 'NONE', #65, #65, #107, .T. ) ;
#36 = AXIS2_PLACEMENT_3D ( 'NONE', #30, #28, #116 ) ;
#37 = PERSON_AND_ORGANIZATION ( #113, #67 ) ;
#38 = APPROVAL_STATUS ( 'not_yet_approved' ) ;
#39 = DIRECTION ( 'NONE',  ( 0.0000000000000000000, 1.000000000000000000, 0.0000000000000000000 ) ) ;
#40 = AXIS2_PLACEMENT_3D ( 'NONE', #184, #115, #49 ) ;
#41 = APPROVAL_DATE_TIME ( #13, #23 ) ;
#42 = APPROVAL_PERSON_ORGANIZATION ( #89, #23, #106 ) ;
#43 = EDGE_LOOP ( 'NONE', ( #146 ) ) ;
#44 = EDGE_CURVE ( 'NONE', #85, #85, #141, .T. ) ;
#45 = ADVANCED_FACE ( 'NONE', ( #80, #204 ), #69, .T. ) ;
#46 = CARTESIAN_POINT ( 'NONE',  ( 1.047444401652940007E-13, -3.673940397442059178E-15, 30.00000000000000000 ) ) ;
#47 = DIRECTION ( 'NONE',  ( -3.491481338843133355E-15, 1.224646799147353207E-16, -1.000000000000000000 ) ) ;
#48 = CONICAL_SURFACE ( 'NONE', #212, 0.2049999999999985167, 1.029744258676649649 ) ;
#49 = DIRECTION ( 'NONE',  ( 0.0000000000000000000, 1.000000000000000000, 0.0000000000000000000 ) ) ;
#50 = DIRECTION ( 'NONE',  ( -3.491481338843133355E-15, 1.224646799147353207E-16, -1.000000000000000000 ) ) ;
#51 = CIRCLE ( 'NONE', #199, 0.4999999999999991673 ) ;
#52 = ADVANCED_FACE ( 'NONE', ( #182, #78 ), #187, .T. ) ;
#53 = EDGE_CURVE ( 'NONE', #157, #157, #202, .T. ) ;
#54 = PERSON_AND_ORGANIZATION ( #113, #67 ) ;
#55 = DIRECTION ( 'NONE',  ( 3.491481338843133355E-15, -1.224646799147353207E-16, 1.000000000000000000 ) ) ;
#56 = CC_DESIGN_SECURITY_CLASSIFICATION ( #194, ( #169 ) ) ;
#57 = DATE_TIME_ROLE ( 'classification_date' ) ;
#58 = ADVANCED_FACE ( 'NONE', ( #167 ), #153, .F. ) ;
#59 = SHAPE_DEFINITION_REPRESENTATION ( #104, #129 ) ;
#60 = DIRECTION ( 'NONE',  ( -3.491481338843133355E-15, 1.224646799147353207E-16, -1.000000000000000000 ) ) ;
#61 = UNCERTAINTY_MEASURE_WITH_UNIT (LENGTH_MEASURE( 1.000000000000000082E-05 ), #1, 'distance_accuracy_value', 'NONE');
#62 = CC_DESIGN_DATE_AND_TIME_ASSIGNMENT ( #216, #57, ( #194 ) ) ;
#63 = PLANE ( 'NONE',  #25 ) ;
#64 = FACE_OUTER_BOUND ( 'NONE', #43, .T. ) ;
#65 = VERTEX_POINT ( 'NONE', #192 ) ;
#66 = DIRECTION ( 'NONE',  ( 1.000000000000000000, 0.0000000000000000000, 0.0000000000000000000 ) ) ;
#67 = ORGANIZATION ( 'UNSPECIFIED', 'UNSPECIFIED', '' ) ;
#68 = CARTESIAN_POINT ( 'NONE',  ( 6.982962677686265133E-15, 0.2049999999999984335, 1.999999999999999556 ) ) ;
#69 = CONICAL_SURFACE ( 'NONE', #8, 0.3999999999999989675, 0.7853981633974694843 ) ;
#70 = PERSON_AND_ORGANIZATION_ROLE ( 'creator' ) ;
#71 = COORDINATED_UNIVERSAL_TIME_OFFSET ( 1, 0, .AHEAD. ) ;
#72 = EDGE_LOOP ( 'NONE', ( #27 ) ) ;
#73 = EDGE_LOOP ( 'NONE', ( #198 ) ) ;
#74 = EDGE_LOOP ( 'NONE', ( #88 ) ) ;
#75 = AXIS2_PLACEMENT_3D ( 'NONE', #217, #60, #39 ) ;
#76 = CARTESIAN_POINT ( 'NONE',  ( 4.300681959089960243E-16, -1.508476169342893851E-17, 0.1231764269006503376 ) ) ;
#77 = AXIS2_PLACEMENT_3D ( 'NONE', #133, #93, #220 ) ;
#78 = FACE_OUTER_BOUND ( 'NONE', #9, .T. ) ;
#79 = CYLINDRICAL_SURFACE ( 'NONE', #15, 0.2049999999999985723 ) ;
#80 = FACE_OUTER_BOUND ( 'NONE', #196, .T. ) ;
#81 = PERSON_AND_ORGANIZATION ( #113, #67 ) ;
#82 = AXIS2_PLACEMENT_3D ( 'NONE', #127, #16, #31 ) ;
#83 = PERSON_AND_ORGANIZATION ( #113, #67 ) ;
#84 = DATE_TIME_ROLE ( 'creation_date' ) ;
#85 = VERTEX_POINT ( 'NONE', #137 ) ;
#86 = PERSON_AND_ORGANIZATION ( #113, #67 ) ;
#87 = COORDINATED_UNIVERSAL_TIME_OFFSET ( 1, 0, .AHEAD. ) ;
#88 = ORIENTED_EDGE ( 'NONE', *, *, #123, .T. ) ;
#89 = PERSON_AND_ORGANIZATION ( #113, #67 ) ;
#90 = EDGE_LOOP ( 'NONE', ( #111 ) ) ;
#91 = APPROVAL_PERSON_ORGANIZATION ( #175, #130, #5 ) ;
#92 = ORIENTED_EDGE ( 'NONE', *, *, #123, .F. ) ;
#93 = DIRECTION ( 'NONE',  ( -3.491481338843133355E-15, 1.224646799147353207E-16, -1.000000000000000000 ) ) ;
#94 = CARTESIAN_POINT ( 'NONE',  ( 0.0000000000000000000, 0.0000000000000000000, 0.0000000000000000000 ) ) ;
#95 = CARTESIAN_POINT ( 'NONE',  ( 4.300681959089960243E-16, -1.508476169342893851E-17, 0.1231764269006503376 ) ) ;
#96 = CIRCLE ( 'NONE', #75, 0.2049999999999986555 ) ;
#97 = FACE_OUTER_BOUND ( 'NONE', #74, .T. ) ;
#98 = CC_DESIGN_PERSON_AND_ORGANIZATION_ASSIGNMENT ( #54, #188, ( #102 ) ) ;
#99 = CC_DESIGN_APPROVAL ( #214, ( #169 ) ) ;
#100 = VERTEX_POINT ( 'NONE', #21 ) ;
#101 = AXIS2_PLACEMENT_3D ( 'NONE', #201, #185, #114 ) ;
#102 = PRODUCT ( '35708', '35708', '', ( #119 ) ) ;
#103 =( NAMED_UNIT ( * ) PLANE_ANGLE_UNIT ( ) SI_UNIT ( $, .RADIAN. ) );
#104 = PRODUCT_DEFINITION_SHAPE ( 'NONE', 'NONE',  #122 ) ;
#105 = CARTESIAN_POINT ( 'NONE',  ( 6.982962677686266711E-15, 1.537253777228390808E-33, 2.000000000000000000 ) ) ;
#106 = APPROVAL_ROLE ( '' ) ;
#107 = CIRCLE ( 'NONE', #18, 0.3999999999999989675 ) ;
#108 = EDGE_LOOP ( 'NONE', ( #200 ) ) ;
#109 = SECURITY_CLASSIFICATION_LEVEL ( 'unclassified' ) ;
#110 = EDGE_LOOP ( 'NONE', ( #145 ) ) ;
#111 = ORIENTED_EDGE ( 'NONE', *, *, #53, .F. ) ;
#112 = LOCAL_TIME ( 15, 46, 34.00000000000000000, #87 ) ;
#113 = PERSON ( 'UNSPECIFIED', 'UNSPECIFIED', 'UNSPECIFIED', ('UNSPECIFIED'), ('UNSPECIFIED'), ('UNSPECIFIED') ) ;
#114 = DIRECTION ( 'NONE',  ( 0.0000000000000000000, 1.000000000000000000, 0.0000000000000000000 ) ) ;
#115 = DIRECTION ( 'NONE',  ( -3.491481338843133355E-15, 1.224646799147353207E-16, -1.000000000000000000 ) ) ;
#116 = DIRECTION ( 'NONE',  ( -4.275831445896958607E-31, -1.000000000000000000, -1.224646799147353207E-16 ) ) ;
#117 = DATE_AND_TIME ( #3, #134 ) ;
#118 = APPROVAL_STATUS ( 'not_yet_approved' ) ;
#119 = MECHANICAL_CONTEXT ( 'NONE', #2, 'mechanical' ) ;
#120 = DIRECTION ( 'NONE',  ( -4.275831445896958607E-31, -1.000000000000000000, -1.224646799147353207E-16 ) ) ;
#121 = CALENDAR_DATE ( 2021, 7, 10 ) ;
#122 = PRODUCT_DEFINITION ( 'UNKNOWN', '', #169, #12 ) ;
#123 = EDGE_CURVE ( 'NONE', #34, #34, #33, .T. ) ;
#124 = AXIS2_PLACEMENT_3D ( 'NONE', #95, #135, #186 ) ;
#125 = EDGE_LOOP ( 'NONE', ( #92 ) ) ;
#126 = AXIS2_PLACEMENT_3D ( 'NONE', #94, #165, #17 ) ;
#127 = CARTESIAN_POINT ( 'NONE',  ( 1.082692647400746629E-14, -3.797574600639358410E-16, 3.100954988232833553 ) ) ;
#128 = CC_DESIGN_PERSON_AND_ORGANIZATION_ASSIGNMENT ( #86, #181, ( #169 ) ) ;
#129 = ADVANCED_BREP_SHAPE_REPRESENTATION ( '35708', ( #209, #132, #158 ), #150 ) ;
#130 = APPROVAL ( #118, 'UNSPECIFIED' ) ;
#131 = CYLINDRICAL_SURFACE ( 'NONE', #126, 0.4999999999999975020 ) ;
#132 = MANIFOLD_SOLID_BREP ( 'Corps-Déplacer/Copier1[2]', #177 ) ;
#133 = CARTESIAN_POINT ( 'NONE',  ( 1.047444401652940007E-13, 2.999519565323652267E-33, 30.00000000000000000 ) ) ;
#134 = LOCAL_TIME ( 15, 46, 34.00000000000000000, #210 ) ;
#135 = DIRECTION ( 'NONE',  ( -3.491481338843133355E-15, 1.224646799147353207E-16, -1.000000000000000000 ) ) ;
#136 = DIRECTION ( 'NONE',  ( -3.491481338843133355E-15, 1.224646799147353207E-16, -1.000000000000000000 ) ) ;
#137 = CARTESIAN_POINT ( 'NONE',  ( 6.982962677686265133E-15, 0.2049999999999984335, 1.999999999999999556 ) ) ;
#138 = ADVANCED_FACE ( 'NONE', ( #97 ), #48, .T. ) ;
#139 = PRODUCT_RELATED_PRODUCT_CATEGORY ( 'detail', '', ( #102 ) ) ;
#140 = COORDINATED_UNIVERSAL_TIME_OFFSET ( 1, 0, .AHEAD. ) ;
#141 = CIRCLE ( 'NONE', #40, 0.2049999999999986555 ) ;
#142 = DATE_AND_TIME ( #160, #11 ) ;
#143 = ORIENTED_EDGE ( 'NONE', *, *, #149, .F. ) ;
#144 = PERSON_AND_ORGANIZATION ( #113, #67 ) ;
#145 = ORIENTED_EDGE ( 'NONE', *, *, #44, .F. ) ;
#146 = ORIENTED_EDGE ( 'NONE', *, *, #35, .F. ) ;
#147 = FACE_OUTER_BOUND ( 'NONE', #125, .T. ) ;
#148 = FACE_OUTER_BOUND ( 'NONE', #14, .T. ) ;
#149 = EDGE_CURVE ( 'NONE', #100, #100, #51, .T. ) ;
#150 =( GEOMETRIC_REPRESENTATION_CONTEXT ( 3 ) GLOBAL_UNCERTAINTY_ASSIGNED_CONTEXT ( ( #61 ) ) GLOBAL_UNIT_ASSIGNED_CONTEXT ( ( #1, #103, #170 ) ) REPRESENTATION_CONTEXT ( 'NONE', 'WORKASPACE' ) );
#151 = FACE_OUTER_BOUND ( 'NONE', #72, .T. ) ;
#152 = DIRECTION ( 'NONE',  ( 4.275831445896958607E-31, 1.000000000000000000, 1.224646799147353207E-16 ) ) ;
#153 = PLANE ( 'NONE',  #36 ) ;
#154 = CC_DESIGN_APPROVAL ( #23, ( #194 ) ) ;
#155 = DIRECTION ( 'NONE',  ( 0.0000000000000000000, 1.000000000000000000, 0.0000000000000000000 ) ) ;
#156 = VERTEX_POINT ( 'NONE', #68 ) ;
#157 = VERTEX_POINT ( 'NONE', #174 ) ;
#158 = AXIS2_PLACEMENT_3D ( 'NONE', #208, #191, #66 ) ;
#159 = APPROVAL_STATUS ( 'not_yet_approved' ) ;
#160 = CALENDAR_DATE ( 2021, 7, 10 ) ;
#161 = DATE_AND_TIME ( #20, #207 ) ;
#162 = CALENDAR_DATE ( 2021, 7, 10 ) ;
#163 = ORIENTED_EDGE ( 'NONE', *, *, #53, .T. ) ;
#164 = FACE_OUTER_BOUND ( 'NONE', #90, .T. ) ;
#165 = DIRECTION ( 'NONE',  ( -3.491481338843133355E-15, 1.224646799147353207E-16, -1.000000000000000000 ) ) ;
#166 = DIRECTION ( 'NONE',  ( 0.0000000000000000000, 1.000000000000000000, 0.0000000000000000000 ) ) ;
#167 = FACE_OUTER_BOUND ( 'NONE', #178, .T. ) ;
#168 = DIRECTION ( 'NONE',  ( -3.491481338843133355E-15, 1.224646799147353207E-16, -1.000000000000000000 ) ) ;
#169 = PRODUCT_DEFINITION_FORMATION_WITH_SPECIFIED_SOURCE ( 'ANY', '', #102, .NOT_KNOWN. ) ;
#170 =( NAMED_UNIT ( * ) SI_UNIT ( $, .STERADIAN. ) SOLID_ANGLE_UNIT ( ) );
#171 = CC_DESIGN_PERSON_AND_ORGANIZATION_ASSIGNMENT ( #81, #223, ( #169 ) ) ;
#172 = COORDINATED_UNIVERSAL_TIME_OFFSET ( 1, 0, .AHEAD. ) ;
#173 = ADVANCED_FACE ( 'NONE', ( #64 ), #222, .F. ) ;
#174 = CARTESIAN_POINT ( 'NONE',  ( 1.082692647400746629E-14, 0.4999999999999954481, 3.100954988232833553 ) ) ;
#175 = PERSON_AND_ORGANIZATION ( #113, #67 ) ;
#176 = APPROVAL_DATE_TIME ( #117, #214 ) ;
#177 = CLOSED_SHELL ( 'NONE', ( #138, #24, #206 ) ) ;
#178 = EDGE_LOOP ( 'NONE', ( #10 ) ) ;
#179 = LOCAL_TIME ( 15, 46, 34.00000000000000000, #71 ) ;
#180 = CC_DESIGN_DATE_AND_TIME_ASSIGNMENT ( #142, #84, ( #122 ) ) ;
#181 = PERSON_AND_ORGANIZATION_ROLE ( 'design_supplier' ) ;
#182 = FACE_BOUND ( 'NONE', #110, .T. ) ;
#183 = DIRECTION ( 'NONE',  ( 3.491481338843133355E-15, -1.224646799147353207E-16, 1.000000000000000000 ) ) ;
#184 = CARTESIAN_POINT ( 'NONE',  ( 6.982962677686265133E-15, -2.449293598294705921E-16, 1.999999999999999556 ) ) ;
#185 = DIRECTION ( 'NONE',  ( -3.491481338843133355E-15, 1.224646799147353207E-16, -1.000000000000000000 ) ) ;
#186 = DIRECTION ( 'NONE',  ( 4.697390108261584975E-31, 1.000000000000000000, 1.322197771323795497E-16 ) ) ;
#187 = CONICAL_SURFACE ( 'NONE', #82, 0.4999999999999958922, 0.2617993877991435792 ) ;
#188 = PERSON_AND_ORGANIZATION_ROLE ( 'design_owner' ) ;
#189 = CC_DESIGN_PERSON_AND_ORGANIZATION_ASSIGNMENT ( #144, #7, ( #194 ) ) ;
#190 = CC_DESIGN_PERSON_AND_ORGANIZATION_ASSIGNMENT ( #83, #70, ( #122 ) ) ;
#191 = DIRECTION ( 'NONE',  ( 0.0000000000000000000, 0.0000000000000000000, 1.000000000000000000 ) ) ;
#192 = CARTESIAN_POINT ( 'NONE',  ( 1.047444401652940007E-13, 0.3999999999999953038, 30.00000000000000000 ) ) ;
#193 = APPLICATION_PROTOCOL_DEFINITION ( 'international standard', 'config_control_design', 1994, #2 ) ;
#194 = SECURITY_CLASSIFICATION ( '', '', #109 ) ;
#195 = CARTESIAN_POINT ( 'NONE',  ( 4.300681959089961229E-16, 0.2049999999999984890, 0.1231764269006503654 ) ) ;
#196 = EDGE_LOOP ( 'NONE', ( #143 ) ) ;
#197 = APPLICATION_CONTEXT ( 'configuration controlled 3d designs of mechanical parts and assemblies' ) ;
#198 = ORIENTED_EDGE ( 'NONE', *, *, #35, .T. ) ;
#199 = AXIS2_PLACEMENT_3D ( 'NONE', #19, #50, #155 ) ;
#200 = ORIENTED_EDGE ( 'NONE', *, *, #6, .T. ) ;
#201 = CARTESIAN_POINT ( 'NONE',  ( 1.082692647400746629E-14, -3.797574600639358410E-16, 3.100954988232833553 ) ) ;
#202 = CIRCLE ( 'NONE', #101, 0.4999999999999958922 ) ;
#203 = CARTESIAN_POINT ( 'NONE',  ( 0.0000000000000000000, 0.0000000000000000000, 0.0000000000000000000 ) ) ;
#204 = FACE_BOUND ( 'NONE', #73, .T. ) ;
#205 = ADVANCED_FACE ( 'NONE', ( #164, #148 ), #131, .T. ) ;
#206 = ADVANCED_FACE ( 'NONE', ( #151 ), #63, .T. ) ;
#207 = LOCAL_TIME ( 15, 46, 34.00000000000000000, #172 ) ;
#208 = CARTESIAN_POINT ( 'NONE',  ( 0.0000000000000000000, 0.0000000000000000000, 0.0000000000000000000 ) ) ;
#209 = MANIFOLD_SOLID_BREP ( 'Corps-Déplacer/Copier1[1]', #4 ) ;
#210 = COORDINATED_UNIVERSAL_TIME_OFFSET ( 1, 0, .AHEAD. ) ;
#211 = APPLICATION_PROTOCOL_DEFINITION ( 'international standard', 'config_control_design', 1994, #197 ) ;
#212 = AXIS2_PLACEMENT_3D ( 'NONE', #76, #183, #29 ) ;
#213 = FACE_OUTER_BOUND ( 'NONE', #108, .T. ) ;
#214 = APPROVAL ( #159, 'UNSPECIFIED' ) ;
#215 = APPROVAL_PERSON_ORGANIZATION ( #37, #214, #32 ) ;
#216 = DATE_AND_TIME ( #121, #112 ) ;
#217 = CARTESIAN_POINT ( 'NONE',  ( 6.982962677686265133E-15, -2.449293598294705921E-16, 1.999999999999999556 ) ) ;
#218 = CC_DESIGN_APPROVAL ( #130, ( #122 ) ) ;
#219 = CARTESIAN_POINT ( 'NONE',  ( 1.047444401652940007E-13, -3.673940397442059178E-15, 30.00000000000000000 ) ) ;
#220 = DIRECTION ( 'NONE',  ( 4.275831445896958607E-31, 1.000000000000000000, 1.224646799147353207E-16 ) ) ;
#221 = DIRECTION ( 'NONE',  ( 0.0000000000000000000, 1.000000000000000000, 0.0000000000000000000 ) ) ;
#222 = PLANE ( 'NONE',  #77 ) ;
#223 = PERSON_AND_ORGANIZATION_ROLE ( 'creator' ) ;
ENDSEC;
END-ISO-10303-21;
