ISO-10303-21;
HEADER;
FILE_DESCRIPTION (( 'STEP AP203' ),
    '1' );
FILE_NAME ('35675.step',
    '2021-11-24T09:17:54',
    ( '' ),
    ( '' ),
    'SwSTEP 2.0',
    'SolidWorks 2019',
    '' );
FILE_SCHEMA (( 'CONFIG_CONTROL_DESIGN' ));
ENDSEC;

DATA;
#1 = CARTESIAN_POINT ( 'NONE',  ( 0.0000000000000000000, 3.000000000000000000, 0.0000000000000000000 ) ) ;
#2 =( LENGTH_UNIT ( ) NAMED_UNIT ( * ) SI_UNIT ( .MILLI., .METRE. ) );
#3 = FACE_OUTER_BOUND ( 'NONE', #179, .T. ) ;
#4 = CC_DESIGN_PERSON_AND_ORGANIZATION_ASSIGNMENT ( #183, #105, ( #71 ) ) ;
#5 = PERSON_AND_ORGANIZATION_ROLE ( 'creator' ) ;
#6 = PERSON ( 'UNSPECIFIED', 'UNSPECIFIED', 'UNSPECIFIED', ('UNSPECIFIED'), ('UNSPECIFIED'), ('UNSPECIFIED') ) ;
#7 = AXIS2_PLACEMENT_3D ( 'NONE', #18, #172, #118 ) ;
#8 = EDGE_CURVE ( 'NONE', #19, #19, #149, .T. ) ;
#9 = EDGE_LOOP ( 'NONE', ( #11 ) ) ;
#10 = PERSON_AND_ORGANIZATION ( #6, #80 ) ;
#11 = ORIENTED_EDGE ( 'NONE', *, *, #196, .T. ) ;
#12 = LOCAL_TIME ( 10, 17, 54.00000000000000000, #139 ) ;
#13 = APPROVAL_ROLE ( '' ) ;
#14 = CARTESIAN_POINT ( 'NONE',  ( 2.793185071074506684E-14, 2.249639673992785317E-32, 8.000000000000000000 ) ) ;
#15 = DIRECTION ( 'NONE',  ( -3.491481338843133355E-15, 1.224646799147353207E-16, -1.000000000000000000 ) ) ;
#16 = AXIS2_PLACEMENT_3D ( 'NONE', #173, #138, #195 ) ;
#17 = ADVANCED_FACE ( 'NONE', ( #142, #47 ), #187, .T. ) ;
#18 = CARTESIAN_POINT ( 'NONE',  ( -1.282749433769087757E-30, 4.499279347985572824E-32, -3.673940397442059868E-16 ) ) ;
#19 = VERTEX_POINT ( 'NONE', #144 ) ;
#20 = APPROVAL_ROLE ( '' ) ;
#21 = FACE_OUTER_BOUND ( 'NONE', #103, .T. ) ;
#22 = AXIS2_PLACEMENT_3D ( 'NONE', #82, #156, #128 ) ;
#23 = CARTESIAN_POINT ( 'NONE',  ( 1.990144363140586139E-13, -6.980486755139912911E-15, 57.00000000000000000 ) ) ;
#24 = EDGE_LOOP ( 'NONE', ( #114 ) ) ;
#25 = MANIFOLD_SOLID_BREP ( 'Corps-Déplacer/Copier1[2]', #53 ) ;
#26 = APPROVAL ( #69, 'UNSPECIFIED' ) ;
#27 = APPROVAL_PERSON_ORGANIZATION ( #10, #148, #13 ) ;
#28 = EDGE_LOOP ( 'NONE', ( #203 ) ) ;
#29 = DESIGN_CONTEXT ( 'detailed design', #137, 'design' ) ;
#30 = CC_DESIGN_DATE_AND_TIME_ASSIGNMENT ( #124, #117, ( #191 ) ) ;
#31 = FACE_OUTER_BOUND ( 'NONE', #24, .T. ) ;
#32 = DIRECTION ( 'NONE',  ( 0.0000000000000000000, 1.000000000000000000, 0.0000000000000000000 ) ) ;
#33 = SECURITY_CLASSIFICATION ( '', '', #61 ) ;
#34 = DIRECTION ( 'NONE',  ( 3.491481338843133355E-15, -1.224646799147353207E-16, 1.000000000000000000 ) ) ;
#35 = DIRECTION ( 'NONE',  ( -3.491481338843133355E-15, 1.224646799147353207E-16, -1.000000000000000000 ) ) ;
#36 = FACE_OUTER_BOUND ( 'NONE', #89, .T. ) ;
#37 = CARTESIAN_POINT ( 'NONE',  ( 1.990144363140586139E-13, 2.399999999999993250, 57.00000000000000000 ) ) ;
#38 = CC_DESIGN_APPROVAL ( #26, ( #33 ) ) ;
#39 = APPROVAL_DATE_TIME ( #152, #148 ) ;
#40 = CC_DESIGN_PERSON_AND_ORGANIZATION_ASSIGNMENT ( #101, #143, ( #202 ) ) ;
#41 = ORIENTED_EDGE ( 'NONE', *, *, #196, .F. ) ;
#42 = EDGE_LOOP ( 'NONE', ( #41 ) ) ;
#43 = CC_DESIGN_APPROVAL ( #133, ( #191 ) ) ;
#44 = CARTESIAN_POINT ( 'NONE',  ( 1.990144363140586139E-13, 1.799711739194219003E-32, 57.00000000000000000 ) ) ;
#45 = APPROVAL_STATUS ( 'not_yet_approved' ) ;
#46 = COORDINATED_UNIVERSAL_TIME_OFFSET ( 1, 0, .AHEAD. ) ;
#47 = FACE_OUTER_BOUND ( 'NONE', #94, .T. ) ;
#48 = CALENDAR_DATE ( 2021, 24, 11 ) ;
#49 = VERTEX_POINT ( 'NONE', #158 ) ;
#50 =( NAMED_UNIT ( * ) PLANE_ANGLE_UNIT ( ) SI_UNIT ( $, .RADIAN. ) );
#51 = AXIS2_PLACEMENT_3D ( 'NONE', #151, #166, #32 ) ;
#52 = ADVANCED_BREP_SHAPE_REPRESENTATION ( '35675', ( #90, #25, #162 ), #119 ) ;
#53 = CLOSED_SHELL ( 'NONE', ( #189, #85, #130 ) ) ;
#54 = LOCAL_TIME ( 10, 17, 54.00000000000000000, #83 ) ;
#55 = ADVANCED_FACE ( 'NONE', ( #74 ), #134, .F. ) ;
#56 = DIRECTION ( 'NONE',  ( 4.275831445896959482E-31, 1.000000000000000000, 1.224646799147353207E-16 ) ) ;
#57 = CIRCLE ( 'NONE', #169, 3.000000000000000000 ) ;
#58 = DIRECTION ( 'NONE',  ( -4.275831445896958607E-31, -1.000000000000000000, -1.224646799147353207E-16 ) ) ;
#59 = APPROVAL_ROLE ( '' ) ;
#60 = CC_DESIGN_PERSON_AND_ORGANIZATION_ASSIGNMENT ( #111, #5, ( #202 ) ) ;
#61 = SECURITY_CLASSIFICATION_LEVEL ( 'unclassified' ) ;
#62 = CARTESIAN_POINT ( 'NONE',  ( 0.0000000000000000000, 0.0000000000000000000, 0.0000000000000000000 ) ) ;
#63 = SHAPE_DEFINITION_REPRESENTATION ( #87, #52 ) ;
#64 = DIRECTION ( 'NONE',  ( 4.275831445896959482E-31, 1.000000000000000000, 1.224646799147353207E-16 ) ) ;
#65 =( NAMED_UNIT ( * ) SI_UNIT ( $, .STERADIAN. ) SOLID_ANGLE_UNIT ( ) );
#66 = EDGE_CURVE ( 'NONE', #190, #190, #57, .T. ) ;
#67 = AXIS2_PLACEMENT_3D ( 'NONE', #14, #34, #58 ) ;
#68 = PERSON_AND_ORGANIZATION ( #6, #80 ) ;
#69 = APPROVAL_STATUS ( 'not_yet_approved' ) ;
#70 = CLOSED_SHELL ( 'NONE', ( #55, #174, #17, #76 ) ) ;
#71 = PRODUCT ( '35675', '35675', '', ( #167 ) ) ;
#72 = ORIENTED_EDGE ( 'NONE', *, *, #140, .T. ) ;
#73 = PERSON_AND_ORGANIZATION ( #6, #80 ) ;
#74 = FACE_OUTER_BOUND ( 'NONE', #181, .T. ) ;
#75 = PLANE ( 'NONE',  #157 ) ;
#76 = ADVANCED_FACE ( 'NONE', ( #168 ), #75, .F. ) ;
#77 = CALENDAR_DATE ( 2021, 24, 11 ) ;
#78 = EDGE_LOOP ( 'NONE', ( #116 ) ) ;
#79 = PERSON_AND_ORGANIZATION_ROLE ( 'creator' ) ;
#80 = ORGANIZATION ( 'UNSPECIFIED', 'UNSPECIFIED', '' ) ;
#81 = DIRECTION ( 'NONE',  ( 0.0000000000000000000, 1.000000000000000000, 0.0000000000000000000 ) ) ;
#82 = CARTESIAN_POINT ( 'NONE',  ( -6.413747168845438786E-31, 2.249639673992786412E-32, -1.836970198721029934E-16 ) ) ;
#83 = COORDINATED_UNIVERSAL_TIME_OFFSET ( 1, 0, .AHEAD. ) ;
#84 = DIRECTION ( 'NONE',  ( 0.0000000000000000000, 1.000000000000000000, 0.0000000000000000000 ) ) ;
#85 = ADVANCED_FACE ( 'NONE', ( #31, #154 ), #91, .T. ) ;
#86 = DIRECTION ( 'NONE',  ( 0.0000000000000000000, 0.0000000000000000000, 1.000000000000000000 ) ) ;
#87 = PRODUCT_DEFINITION_SHAPE ( 'NONE', 'NONE',  #191 ) ;
#88 = CIRCLE ( 'NONE', #7, 3.000000000000000000 ) ;
#89 = EDGE_LOOP ( 'NONE', ( #163 ) ) ;
#90 = MANIFOLD_SOLID_BREP ( 'Corps-Déplacer/Copier1[1]', #70 ) ;
#91 = CYLINDRICAL_SURFACE ( 'NONE', #194, 3.000000000000000000 ) ;
#92 = PERSON_AND_ORGANIZATION ( #6, #80 ) ;
#93 = DIRECTION ( 'NONE',  ( -3.491481338843133355E-15, 1.224646799147353207E-16, -1.000000000000000000 ) ) ;
#94 = EDGE_LOOP ( 'NONE', ( #107 ) ) ;
#95 = EDGE_CURVE ( 'NONE', #97, #97, #88, .T. ) ;
#96 = DIRECTION ( 'NONE',  ( -3.491481338843133355E-15, 1.224646799147353207E-16, -1.000000000000000000 ) ) ;
#97 = VERTEX_POINT ( 'NONE', #1 ) ;
#98 = CALENDAR_DATE ( 2021, 24, 11 ) ;
#99 = CARTESIAN_POINT ( 'NONE',  ( 0.0000000000000000000, 0.0000000000000000000, 0.0000000000000000000 ) ) ;
#100 = CC_DESIGN_PERSON_AND_ORGANIZATION_ASSIGNMENT ( #92, #79, ( #191 ) ) ;
#101 = PERSON_AND_ORGANIZATION ( #6, #80 ) ;
#102 = DIRECTION ( 'NONE',  ( 1.000000000000000000, 0.0000000000000000000, 0.0000000000000000000 ) ) ;
#103 = EDGE_LOOP ( 'NONE', ( #165 ) ) ;
#104 = CIRCLE ( 'NONE', #131, 2.400000000000000355 ) ;
#105 = PERSON_AND_ORGANIZATION_ROLE ( 'design_owner' ) ;
#106 = UNCERTAINTY_MEASURE_WITH_UNIT (LENGTH_MEASURE( 1.000000000000000082E-05 ), #2, 'distance_accuracy_value', 'NONE');
#107 = ORIENTED_EDGE ( 'NONE', *, *, #8, .F. ) ;
#108 = CARTESIAN_POINT ( 'NONE',  ( 2.793185071074506684E-14, -9.797174393178825657E-16, 8.000000000000000000 ) ) ;
#109 = CALENDAR_DATE ( 2021, 24, 11 ) ;
#110 = DIRECTION ( 'NONE',  ( -3.491481338843133355E-15, 1.224646799147353207E-16, -1.000000000000000000 ) ) ;
#111 = PERSON_AND_ORGANIZATION ( #6, #80 ) ;
#112 = AXIS2_PLACEMENT_3D ( 'NONE', #120, #15, #81 ) ;
#113 = APPLICATION_PROTOCOL_DEFINITION ( 'international standard', 'config_control_design', 1994, #180 ) ;
#114 = ORIENTED_EDGE ( 'NONE', *, *, #66, .T. ) ;
#115 = CC_DESIGN_PERSON_AND_ORGANIZATION_ASSIGNMENT ( #160, #155, ( #33 ) ) ;
#116 = ORIENTED_EDGE ( 'NONE', *, *, #95, .F. ) ;
#117 = DATE_TIME_ROLE ( 'creation_date' ) ;
#118 = DIRECTION ( 'NONE',  ( 4.275831445896959482E-31, 1.000000000000000000, 1.224646799147353207E-16 ) ) ;
#119 =( GEOMETRIC_REPRESENTATION_CONTEXT ( 3 ) GLOBAL_UNCERTAINTY_ASSIGNED_CONTEXT ( ( #106 ) ) GLOBAL_UNIT_ASSIGNED_CONTEXT ( ( #2, #50, #65 ) ) REPRESENTATION_CONTEXT ( 'NONE', 'WORKASPACE' ) );
#120 = CARTESIAN_POINT ( 'NONE',  ( 1.969195475107526960E-13, -6.907007947191071191E-15, 56.39999999999999147 ) ) ;
#121 = CC_DESIGN_DATE_AND_TIME_ASSIGNMENT ( #175, #161, ( #33 ) ) ;
#122 = LOCAL_TIME ( 10, 17, 54.00000000000000000, #46 ) ;
#123 = COORDINATED_UNIVERSAL_TIME_OFFSET ( 1, 0, .AHEAD. ) ;
#124 = DATE_AND_TIME ( #201, #12 ) ;
#125 = FACE_OUTER_BOUND ( 'NONE', #28, .T. ) ;
#126 = CARTESIAN_POINT ( 'NONE',  ( 2.793185071074506684E-14, 2.999999999999999112, 8.000000000000000000 ) ) ;
#127 = COORDINATED_UNIVERSAL_TIME_OFFSET ( 1, 0, .AHEAD. ) ;
#128 = DIRECTION ( 'NONE',  ( 4.275831445896958607E-31, 1.000000000000000000, 1.224646799147353207E-16 ) ) ;
#129 = LOCAL_TIME ( 10, 17, 54.00000000000000000, #123 ) ;
#130 = ADVANCED_FACE ( 'NONE', ( #125 ), #170, .T. ) ;
#131 = AXIS2_PLACEMENT_3D ( 'NONE', #23, #96, #146 ) ;
#132 = ORIENTED_EDGE ( 'NONE', *, *, #140, .F. ) ;
#133 = APPROVAL ( #45, 'UNSPECIFIED' ) ;
#134 = PLANE ( 'NONE',  #16 ) ;
#135 = CC_DESIGN_APPROVAL ( #148, ( #202 ) ) ;
#136 = CARTESIAN_POINT ( 'NONE',  ( 0.0000000000000000000, 0.0000000000000000000, 0.0000000000000000000 ) ) ;
#137 = APPLICATION_CONTEXT ( 'configuration controlled 3d designs of mechanical parts and assemblies' ) ;
#138 = DIRECTION ( 'NONE',  ( 3.491481338843133355E-15, -1.224646799147353207E-16, 1.000000000000000000 ) ) ;
#139 = COORDINATED_UNIVERSAL_TIME_OFFSET ( 1, 0, .AHEAD. ) ;
#140 = EDGE_CURVE ( 'NONE', #49, #49, #153, .T. ) ;
#141 = DIRECTION ( 'NONE',  ( -3.491481338843133355E-15, 1.224646799147353207E-16, -1.000000000000000000 ) ) ;
#142 = FACE_BOUND ( 'NONE', #9, .T. ) ;
#143 = PERSON_AND_ORGANIZATION_ROLE ( 'design_supplier' ) ;
#144 = CARTESIAN_POINT ( 'NONE',  ( 1.969195475107526960E-13, 2.999999999999992895, 56.39999999999999147 ) ) ;
#145 = DATE_AND_TIME ( #98, #147 ) ;
#146 = DIRECTION ( 'NONE',  ( 0.0000000000000000000, 1.000000000000000000, 0.0000000000000000000 ) ) ;
#147 = LOCAL_TIME ( 10, 17, 54.00000000000000000, #127 ) ;
#148 = APPROVAL ( #186, 'UNSPECIFIED' ) ;
#149 = CIRCLE ( 'NONE', #112, 2.999999999999999556 ) ;
#150 = CC_DESIGN_SECURITY_CLASSIFICATION ( #33, ( #202 ) ) ;
#151 = CARTESIAN_POINT ( 'NONE',  ( 1.969195475107526960E-13, -6.907007947191071191E-15, 56.39999999999999147 ) ) ;
#152 = DATE_AND_TIME ( #77, #122 ) ;
#153 = CIRCLE ( 'NONE', #200, 3.000000000000000000 ) ;
#154 = FACE_OUTER_BOUND ( 'NONE', #78, .T. ) ;
#155 = PERSON_AND_ORGANIZATION_ROLE ( 'classification_officer' ) ;
#156 = DIRECTION ( 'NONE',  ( -3.491481338843133355E-15, 1.224646799147353207E-16, -1.000000000000000000 ) ) ;
#157 = AXIS2_PLACEMENT_3D ( 'NONE', #44, #185, #199 ) ;
#158 = CARTESIAN_POINT ( 'NONE',  ( 2.793185071074506684E-14, 2.999999999999999112, 8.000000000000000000 ) ) ;
#159 = PLANE ( 'NONE',  #22 ) ;
#160 = PERSON_AND_ORGANIZATION ( #6, #80 ) ;
#161 = DATE_TIME_ROLE ( 'classification_date' ) ;
#162 = AXIS2_PLACEMENT_3D ( 'NONE', #99, #86, #102 ) ;
#163 = ORIENTED_EDGE ( 'NONE', *, *, #95, .T. ) ;
#164 = APPLICATION_PROTOCOL_DEFINITION ( 'international standard', 'config_control_design', 1994, #137 ) ;
#165 = ORIENTED_EDGE ( 'NONE', *, *, #8, .T. ) ;
#166 = DIRECTION ( 'NONE',  ( -3.491481338843133355E-15, 1.224646799147353207E-16, -1.000000000000000000 ) ) ;
#167 = MECHANICAL_CONTEXT ( 'NONE', #180, 'mechanical' ) ;
#168 = FACE_OUTER_BOUND ( 'NONE', #42, .T. ) ;
#169 = AXIS2_PLACEMENT_3D ( 'NONE', #108, #35, #197 ) ;
#170 = PLANE ( 'NONE',  #67 ) ;
#171 = APPROVAL_DATE_TIME ( #198, #133 ) ;
#172 = DIRECTION ( 'NONE',  ( -3.491481338843133355E-15, 1.224646799147353207E-16, -1.000000000000000000 ) ) ;
#173 = CARTESIAN_POINT ( 'NONE',  ( 2.793185071074506684E-14, 2.249639673992785317E-32, 8.000000000000000000 ) ) ;
#174 = ADVANCED_FACE ( 'NONE', ( #21, #3 ), #176, .T. ) ;
#175 = DATE_AND_TIME ( #109, #54 ) ;
#176 = CYLINDRICAL_SURFACE ( 'NONE', #182, 3.000000000000000000 ) ;
#177 = VERTEX_POINT ( 'NONE', #37 ) ;
#178 = APPROVAL_DATE_TIME ( #145, #26 ) ;
#179 = EDGE_LOOP ( 'NONE', ( #132 ) ) ;
#180 = APPLICATION_CONTEXT ( 'configuration controlled 3d designs of mechanical parts and assemblies' ) ;
#181 = EDGE_LOOP ( 'NONE', ( #72 ) ) ;
#182 = AXIS2_PLACEMENT_3D ( 'NONE', #62, #110, #64 ) ;
#183 = PERSON_AND_ORGANIZATION ( #6, #80 ) ;
#184 = APPROVAL_PERSON_ORGANIZATION ( #68, #26, #20 ) ;
#185 = DIRECTION ( 'NONE',  ( -3.491481338843133355E-15, 1.224646799147353207E-16, -1.000000000000000000 ) ) ;
#186 = APPROVAL_STATUS ( 'not_yet_approved' ) ;
#187 = CONICAL_SURFACE ( 'NONE', #51, 2.999999999999999556, 0.7853981633974392862 ) ;
#188 = CARTESIAN_POINT ( 'NONE',  ( 2.793185071074506684E-14, -9.797174393178825657E-16, 8.000000000000000000 ) ) ;
#189 = ADVANCED_FACE ( 'NONE', ( #36 ), #159, .T. ) ;
#190 = VERTEX_POINT ( 'NONE', #126 ) ;
#191 = PRODUCT_DEFINITION ( 'UNKNOWN', '', #202, #29 ) ;
#192 = APPROVAL_PERSON_ORGANIZATION ( #73, #133, #59 ) ;
#193 = PRODUCT_RELATED_PRODUCT_CATEGORY ( 'detail', '', ( #71 ) ) ;
#194 = AXIS2_PLACEMENT_3D ( 'NONE', #136, #141, #56 ) ;
#195 = DIRECTION ( 'NONE',  ( -4.275831445896958607E-31, -1.000000000000000000, -1.224646799147353207E-16 ) ) ;
#196 = EDGE_CURVE ( 'NONE', #177, #177, #104, .T. ) ;
#197 = DIRECTION ( 'NONE',  ( 0.0000000000000000000, 1.000000000000000000, 0.0000000000000000000 ) ) ;
#198 = DATE_AND_TIME ( #48, #129 ) ;
#199 = DIRECTION ( 'NONE',  ( 4.275831445896958607E-31, 1.000000000000000000, 1.224646799147353207E-16 ) ) ;
#200 = AXIS2_PLACEMENT_3D ( 'NONE', #188, #93, #84 ) ;
#201 = CALENDAR_DATE ( 2021, 24, 11 ) ;
#202 = PRODUCT_DEFINITION_FORMATION_WITH_SPECIFIED_SOURCE ( 'ANY', '', #71, .NOT_KNOWN. ) ;
#203 = ORIENTED_EDGE ( 'NONE', *, *, #66, .F. ) ;
ENDSEC;
END-ISO-10303-21;
