ISO-10303-21;
HEADER;
FILE_DESCRIPTION (( 'STEP AP203' ),
    '1' );
FILE_NAME ('35674.step',
    '2021-11-24T09:17:53',
    ( '' ),
    ( '' ),
    'SwSTEP 2.0',
    'SolidWorks 2019',
    '' );
FILE_SCHEMA (( 'CONFIG_CONTROL_DESIGN' ));
ENDSEC;

DATA;
#1 = APPROVAL_ROLE ( '' ) ;
#2 = PERSON_AND_ORGANIZATION_ROLE ( 'design_supplier' ) ;
#3 = SECURITY_CLASSIFICATION ( '', '', #143 ) ;
#4 = APPROVAL_PERSON_ORGANIZATION ( #151, #153, #186 ) ;
#5 = CALENDAR_DATE ( 2021, 24, 11 ) ;
#6 = DIRECTION ( 'NONE',  ( 4.275831445896958607E-31, 1.000000000000000000, 1.224646799147353207E-16 ) ) ;
#7 = ADVANCED_BREP_SHAPE_REPRESENTATION ( '35674', ( #9, #141, #130 ), #94 ) ;
#8 = CARTESIAN_POINT ( 'NONE',  ( 2.094888803305880013E-14, -7.347880794884119736E-16, 6.000000000000000000 ) ) ;
#9 = MANIFOLD_SOLID_BREP ( 'Corps-Déplacer/Copier1[1]', #156 ) ;
#10 = ORIENTED_EDGE ( 'NONE', *, *, #82, .F. ) ;
#11 = EDGE_LOOP ( 'NONE', ( #179 ) ) ;
#12 = ORIENTED_EDGE ( 'NONE', *, *, #70, .F. ) ;
#13 = DIRECTION ( 'NONE',  ( 0.0000000000000000000, 1.000000000000000000, 0.0000000000000000000 ) ) ;
#14 = CYLINDRICAL_SURFACE ( 'NONE', #69, 2.500000000000000000 ) ;
#15 = PERSON_AND_ORGANIZATION ( #55, #53 ) ;
#16 = APPROVAL_STATUS ( 'not_yet_approved' ) ;
#17 = COORDINATED_UNIVERSAL_TIME_OFFSET ( 1, 0, .AHEAD. ) ;
#18 = COORDINATED_UNIVERSAL_TIME_OFFSET ( 1, 0, .AHEAD. ) ;
#19 = MECHANICAL_CONTEXT ( 'NONE', #126, 'mechanical' ) ;
#20 = AXIS2_PLACEMENT_3D ( 'NONE', #195, #163, #47 ) ;
#21 = CIRCLE ( 'NONE', #127, 2.499999999999999556 ) ;
#22 =( LENGTH_UNIT ( ) NAMED_UNIT ( * ) SI_UNIT ( .MILLI., .METRE. ) );
#23 = FACE_OUTER_BOUND ( 'NONE', #193, .T. ) ;
#24 = EDGE_LOOP ( 'NONE', ( #62 ) ) ;
#25 = AXIS2_PLACEMENT_3D ( 'NONE', #95, #182, #109 ) ;
#26 = CARTESIAN_POINT ( 'NONE',  ( 1.745740669421566678E-13, 1.499759782661848302E-32, 50.00000000000000000 ) ) ;
#27 = CC_DESIGN_DATE_AND_TIME_ASSIGNMENT ( #116, #51, ( #3 ) ) ;
#28 = ORIENTED_EDGE ( 'NONE', *, *, #70, .T. ) ;
#29 = ORIENTED_EDGE ( 'NONE', *, *, #82, .T. ) ;
#30 = DIRECTION ( 'NONE',  ( -3.491481338843133355E-15, 1.224646799147353207E-16, -1.000000000000000000 ) ) ;
#31 = DIRECTION ( 'NONE',  ( -3.491481338843133355E-15, 1.224646799147353207E-16, -1.000000000000000000 ) ) ;
#32 = AXIS2_PLACEMENT_3D ( 'NONE', #81, #137, #61 ) ;
#33 = ADVANCED_FACE ( 'NONE', ( #103 ), #161, .F. ) ;
#34 = DIRECTION ( 'NONE',  ( -3.491481338843133355E-15, 1.224646799147353207E-16, -1.000000000000000000 ) ) ;
#35 = CALENDAR_DATE ( 2021, 24, 11 ) ;
#36 = APPLICATION_PROTOCOL_DEFINITION ( 'international standard', 'config_control_design', 1994, #43 ) ;
#37 = CC_DESIGN_SECURITY_CLASSIFICATION ( #3, ( #65 ) ) ;
#38 = CALENDAR_DATE ( 2021, 24, 11 ) ;
#39 = DATE_AND_TIME ( #5, #177 ) ;
#40 = ADVANCED_FACE ( 'NONE', ( #133 ), #77, .T. ) ;
#41 = CIRCLE ( 'NONE', #86, 2.500000000000000000 ) ;
#42 = CC_DESIGN_DATE_AND_TIME_ASSIGNMENT ( #87, #85, ( #100 ) ) ;
#43 = APPLICATION_CONTEXT ( 'configuration controlled 3d designs of mechanical parts and assemblies' ) ;
#44 = AXIS2_PLACEMENT_3D ( 'NONE', #110, #30, #64 ) ;
#45 = EDGE_LOOP ( 'NONE', ( #131 ) ) ;
#46 = FACE_OUTER_BOUND ( 'NONE', #158, .T. ) ;
#47 = DIRECTION ( 'NONE',  ( -4.275831445896958607E-31, -1.000000000000000000, -1.224646799147353207E-16 ) ) ;
#48 = DIRECTION ( 'NONE',  ( 4.275831445896958607E-31, 1.000000000000000000, 1.224646799147353207E-16 ) ) ;
#49 = FACE_OUTER_BOUND ( 'NONE', #104, .T. ) ;
#50 = PERSON_AND_ORGANIZATION_ROLE ( 'classification_officer' ) ;
#51 = DATE_TIME_ROLE ( 'classification_date' ) ;
#52 = PERSON_AND_ORGANIZATION ( #55, #53 ) ;
#53 = ORGANIZATION ( 'UNSPECIFIED', 'UNSPECIFIED', '' ) ;
#54 = COORDINATED_UNIVERSAL_TIME_OFFSET ( 1, 0, .AHEAD. ) ;
#55 = PERSON ( 'UNSPECIFIED', 'UNSPECIFIED', 'UNSPECIFIED', ('UNSPECIFIED'), ('UNSPECIFIED'), ('UNSPECIFIED') ) ;
#56 = ORIENTED_EDGE ( 'NONE', *, *, #201, .F. ) ;
#57 = UNCERTAINTY_MEASURE_WITH_UNIT (LENGTH_MEASURE( 1.000000000000000082E-05 ), #22, 'distance_accuracy_value', 'NONE');
#58 = CARTESIAN_POINT ( 'NONE',  ( 1.745740669421566678E-13, 1.999999999999994005, 50.00000000000000000 ) ) ;
#59 = DIRECTION ( 'NONE',  ( 4.275831445896958607E-31, 1.000000000000000000, 1.224646799147353207E-16 ) ) ;
#60 = PRODUCT_DEFINITION_SHAPE ( 'NONE', 'NONE',  #100 ) ;
#61 = DIRECTION ( 'NONE',  ( -4.275831445896958607E-31, -1.000000000000000000, -1.224646799147353207E-16 ) ) ;
#62 = ORIENTED_EDGE ( 'NONE', *, *, #201, .T. ) ;
#63 = DIRECTION ( 'NONE',  ( -3.491481338843133355E-15, 1.224646799147353207E-16, -1.000000000000000000 ) ) ;
#64 = DIRECTION ( 'NONE',  ( 0.0000000000000000000, 1.000000000000000000, 0.0000000000000000000 ) ) ;
#65 = PRODUCT_DEFINITION_FORMATION_WITH_SPECIFIED_SOURCE ( 'ANY', '', #194, .NOT_KNOWN. ) ;
#66 = APPROVAL ( #140, 'UNSPECIFIED' ) ;
#67 = PERSON_AND_ORGANIZATION_ROLE ( 'creator' ) ;
#68 = CALENDAR_DATE ( 2021, 24, 11 ) ;
#69 = AXIS2_PLACEMENT_3D ( 'NONE', #183, #196, #157 ) ;
#70 = EDGE_CURVE ( 'NONE', #155, #155, #41, .T. ) ;
#71 = LOCAL_TIME ( 10, 17, 53.00000000000000000, #18 ) ;
#72 = CC_DESIGN_PERSON_AND_ORGANIZATION_ASSIGNMENT ( #189, #2, ( #65 ) ) ;
#73 = DIRECTION ( 'NONE',  ( 0.0000000000000000000, 1.000000000000000000, 0.0000000000000000000 ) ) ;
#74 = DIRECTION ( 'NONE',  ( -3.491481338843133355E-15, 1.224646799147353207E-16, -1.000000000000000000 ) ) ;
#75 = EDGE_CURVE ( 'NONE', #129, #129, #192, .T. ) ;
#76 = DIRECTION ( 'NONE',  ( -3.491481338843133355E-15, 1.224646799147353207E-16, -1.000000000000000000 ) ) ;
#77 = PLANE ( 'NONE',  #20 ) ;
#78 = APPROVAL_PERSON_ORGANIZATION ( #52, #66, #1 ) ;
#79 = ADVANCED_FACE ( 'NONE', ( #165 ), #102, .T. ) ;
#80 = FACE_OUTER_BOUND ( 'NONE', #136, .T. ) ;
#81 = CARTESIAN_POINT ( 'NONE',  ( 2.094888803305880013E-14, 1.874699728327321189E-32, 6.000000000000000000 ) ) ;
#82 = EDGE_CURVE ( 'NONE', #105, #105, #21, .T. ) ;
#83 = PERSON_AND_ORGANIZATION ( #55, #53 ) ;
#84 = DIRECTION ( 'NONE',  ( 0.0000000000000000000, 0.0000000000000000000, 1.000000000000000000 ) ) ;
#85 = DATE_TIME_ROLE ( 'creation_date' ) ;
#86 = AXIS2_PLACEMENT_3D ( 'NONE', #107, #31, #48 ) ;
#87 = DATE_AND_TIME ( #154, #71 ) ;
#88 = CARTESIAN_POINT ( 'NONE',  ( -5.344789307371197820E-31, 1.874699728327322010E-32, -1.530808498934191571E-16 ) ) ;
#89 = CYLINDRICAL_SURFACE ( 'NONE', #128, 2.500000000000000444 ) ;
#90 = CC_DESIGN_PERSON_AND_ORGANIZATION_ASSIGNMENT ( #167, #67, ( #65 ) ) ;
#91 = AXIS2_PLACEMENT_3D ( 'NONE', #8, #34, #166 ) ;
#92 = CARTESIAN_POINT ( 'NONE',  ( 1.728283262727351074E-13, 2.499999999999993339, 49.50000000000000000 ) ) ;
#93 = CARTESIAN_POINT ( 'NONE',  ( 2.094888803305880013E-14, 2.499999999999999556, 6.000000000000000000 ) ) ;
#94 =( GEOMETRIC_REPRESENTATION_CONTEXT ( 3 ) GLOBAL_UNCERTAINTY_ASSIGNED_CONTEXT ( ( #57 ) ) GLOBAL_UNIT_ASSIGNED_CONTEXT ( ( #22, #180, #96 ) ) REPRESENTATION_CONTEXT ( 'NONE', 'WORKASPACE' ) );
#95 = CARTESIAN_POINT ( 'NONE',  ( 1.745740669421566678E-13, -6.123233995736766085E-15, 50.00000000000000000 ) ) ;
#96 =( NAMED_UNIT ( * ) SI_UNIT ( $, .STERADIAN. ) SOLID_ANGLE_UNIT ( ) );
#97 = APPROVAL_DATE_TIME ( #114, #66 ) ;
#98 = AXIS2_PLACEMENT_3D ( 'NONE', #88, #164, #6 ) ;
#99 = APPROVAL_STATUS ( 'not_yet_approved' ) ;
#100 = PRODUCT_DEFINITION ( 'UNKNOWN', '', #65, #134 ) ;
#101 = APPROVAL_PERSON_ORGANIZATION ( #15, #159, #152 ) ;
#102 = PLANE ( 'NONE',  #98 ) ;
#103 = FACE_OUTER_BOUND ( 'NONE', #11, .T. ) ;
#104 = EDGE_LOOP ( 'NONE', ( #10 ) ) ;
#105 = VERTEX_POINT ( 'NONE', #92 ) ;
#106 = CC_DESIGN_PERSON_AND_ORGANIZATION_ASSIGNMENT ( #150, #124, ( #194 ) ) ;
#107 = CARTESIAN_POINT ( 'NONE',  ( -1.068957861474239564E-30, 3.749399456654644020E-32, -3.061616997868383141E-16 ) ) ;
#108 = FACE_OUTER_BOUND ( 'NONE', #24, .T. ) ;
#109 = DIRECTION ( 'NONE',  ( 0.0000000000000000000, 1.000000000000000000, 0.0000000000000000000 ) ) ;
#110 = CARTESIAN_POINT ( 'NONE',  ( 1.728283262727351074E-13, -6.062001655779398511E-15, 49.50000000000000000 ) ) ;
#111 = AXIS2_PLACEMENT_3D ( 'NONE', #119, #74, #13 ) ;
#112 = COORDINATED_UNIVERSAL_TIME_OFFSET ( 1, 0, .AHEAD. ) ;
#113 = CARTESIAN_POINT ( 'NONE',  ( 0.0000000000000000000, 0.0000000000000000000, 0.0000000000000000000 ) ) ;
#114 = DATE_AND_TIME ( #35, #188 ) ;
#115 = CC_DESIGN_APPROVAL ( #153, ( #100 ) ) ;
#116 = DATE_AND_TIME ( #38, #171 ) ;
#117 = DATE_AND_TIME ( #68, #197 ) ;
#118 = EDGE_LOOP ( 'NONE', ( #176 ) ) ;
#119 = CARTESIAN_POINT ( 'NONE',  ( 2.094888803305880013E-14, -7.347880794884119736E-16, 6.000000000000000000 ) ) ;
#120 = CARTESIAN_POINT ( 'NONE',  ( 2.094888803305880013E-14, 2.499999999999999556, 6.000000000000000000 ) ) ;
#121 = ORIENTED_EDGE ( 'NONE', *, *, #75, .T. ) ;
#122 = DIRECTION ( 'NONE',  ( 4.275831445896958607E-31, 1.000000000000000000, 1.224646799147353207E-16 ) ) ;
#123 = CC_DESIGN_PERSON_AND_ORGANIZATION_ASSIGNMENT ( #83, #139, ( #100 ) ) ;
#124 = PERSON_AND_ORGANIZATION_ROLE ( 'design_owner' ) ;
#125 = SHAPE_DEFINITION_REPRESENTATION ( #60, #7 ) ;
#126 = APPLICATION_CONTEXT ( 'configuration controlled 3d designs of mechanical parts and assemblies' ) ;
#127 = AXIS2_PLACEMENT_3D ( 'NONE', #135, #178, #73 ) ;
#128 = AXIS2_PLACEMENT_3D ( 'NONE', #145, #63, #122 ) ;
#129 = VERTEX_POINT ( 'NONE', #58 ) ;
#130 = AXIS2_PLACEMENT_3D ( 'NONE', #113, #84, #169 ) ;
#131 = ORIENTED_EDGE ( 'NONE', *, *, #181, .F. ) ;
#132 = ADVANCED_FACE ( 'NONE', ( #46, #80 ), #14, .T. ) ;
#133 = FACE_OUTER_BOUND ( 'NONE', #45, .T. ) ;
#134 = DESIGN_CONTEXT ( 'detailed design', #43, 'design' ) ;
#135 = CARTESIAN_POINT ( 'NONE',  ( 1.728283262727351074E-13, -6.062001655779398511E-15, 49.50000000000000000 ) ) ;
#136 = EDGE_LOOP ( 'NONE', ( #56 ) ) ;
#137 = DIRECTION ( 'NONE',  ( 3.491481338843133355E-15, -1.224646799147353207E-16, 1.000000000000000000 ) ) ;
#138 = CIRCLE ( 'NONE', #111, 2.500000000000000444 ) ;
#139 = PERSON_AND_ORGANIZATION_ROLE ( 'creator' ) ;
#140 = APPROVAL_STATUS ( 'not_yet_approved' ) ;
#141 = MANIFOLD_SOLID_BREP ( 'Corps-Déplacer/Copier1[2]', #187 ) ;
#142 = CIRCLE ( 'NONE', #91, 2.500000000000000444 ) ;
#143 = SECURITY_CLASSIFICATION_LEVEL ( 'unclassified' ) ;
#144 = ADVANCED_FACE ( 'NONE', ( #108 ), #162, .F. ) ;
#145 = CARTESIAN_POINT ( 'NONE',  ( 0.0000000000000000000, 0.0000000000000000000, 0.0000000000000000000 ) ) ;
#146 = CONICAL_SURFACE ( 'NONE', #44, 2.499999999999999556, 0.7853981633974473908 ) ;
#147 = VERTEX_POINT ( 'NONE', #120 ) ;
#148 = CC_DESIGN_APPROVAL ( #66, ( #65 ) ) ;
#149 = FACE_OUTER_BOUND ( 'NONE', #118, .T. ) ;
#150 = PERSON_AND_ORGANIZATION ( #55, #53 ) ;
#151 = PERSON_AND_ORGANIZATION ( #55, #53 ) ;
#152 = APPROVAL_ROLE ( '' ) ;
#153 = APPROVAL ( #16, 'UNSPECIFIED' ) ;
#154 = CALENDAR_DATE ( 2021, 24, 11 ) ;
#155 = VERTEX_POINT ( 'NONE', #175 ) ;
#156 = CLOSED_SHELL ( 'NONE', ( #144, #132, #172, #33 ) ) ;
#157 = DIRECTION ( 'NONE',  ( 4.275831445896958607E-31, 1.000000000000000000, 1.224646799147353207E-16 ) ) ;
#158 = EDGE_LOOP ( 'NONE', ( #29 ) ) ;
#159 = APPROVAL ( #99, 'UNSPECIFIED' ) ;
#160 = EDGE_LOOP ( 'NONE', ( #28 ) ) ;
#161 = PLANE ( 'NONE',  #174 ) ;
#162 = PLANE ( 'NONE',  #32 ) ;
#163 = DIRECTION ( 'NONE',  ( 3.491481338843133355E-15, -1.224646799147353207E-16, 1.000000000000000000 ) ) ;
#164 = DIRECTION ( 'NONE',  ( -3.491481338843133355E-15, 1.224646799147353207E-16, -1.000000000000000000 ) ) ;
#165 = FACE_OUTER_BOUND ( 'NONE', #160, .T. ) ;
#166 = DIRECTION ( 'NONE',  ( 0.0000000000000000000, 1.000000000000000000, 0.0000000000000000000 ) ) ;
#167 = PERSON_AND_ORGANIZATION ( #55, #53 ) ;
#168 = ADVANCED_FACE ( 'NONE', ( #149, #23 ), #89, .T. ) ;
#169 = DIRECTION ( 'NONE',  ( 1.000000000000000000, 0.0000000000000000000, 0.0000000000000000000 ) ) ;
#170 = COORDINATED_UNIVERSAL_TIME_OFFSET ( 1, 0, .AHEAD. ) ;
#171 = LOCAL_TIME ( 10, 17, 53.00000000000000000, #170 ) ;
#172 = ADVANCED_FACE ( 'NONE', ( #200, #49 ), #146, .T. ) ;
#173 = APPROVAL_DATE_TIME ( #117, #153 ) ;
#174 = AXIS2_PLACEMENT_3D ( 'NONE', #26, #76, #59 ) ;
#175 = CARTESIAN_POINT ( 'NONE',  ( 0.0000000000000000000, 2.500000000000000000, 0.0000000000000000000 ) ) ;
#176 = ORIENTED_EDGE ( 'NONE', *, *, #181, .T. ) ;
#177 = LOCAL_TIME ( 10, 17, 53.00000000000000000, #17 ) ;
#178 = DIRECTION ( 'NONE',  ( -3.491481338843133355E-15, 1.224646799147353207E-16, -1.000000000000000000 ) ) ;
#179 = ORIENTED_EDGE ( 'NONE', *, *, #75, .F. ) ;
#180 =( NAMED_UNIT ( * ) PLANE_ANGLE_UNIT ( ) SI_UNIT ( $, .RADIAN. ) );
#181 = EDGE_CURVE ( 'NONE', #147, #147, #142, .T. ) ;
#182 = DIRECTION ( 'NONE',  ( -3.491481338843133355E-15, 1.224646799147353207E-16, -1.000000000000000000 ) ) ;
#183 = CARTESIAN_POINT ( 'NONE',  ( 0.0000000000000000000, 0.0000000000000000000, 0.0000000000000000000 ) ) ;
#184 = PRODUCT_RELATED_PRODUCT_CATEGORY ( 'detail', '', ( #194 ) ) ;
#185 = PERSON_AND_ORGANIZATION ( #55, #53 ) ;
#186 = APPROVAL_ROLE ( '' ) ;
#187 = CLOSED_SHELL ( 'NONE', ( #79, #168, #40 ) ) ;
#188 = LOCAL_TIME ( 10, 17, 53.00000000000000000, #112 ) ;
#189 = PERSON_AND_ORGANIZATION ( #55, #53 ) ;
#190 = CC_DESIGN_PERSON_AND_ORGANIZATION_ASSIGNMENT ( #185, #50, ( #3 ) ) ;
#191 = VERTEX_POINT ( 'NONE', #93 ) ;
#192 = CIRCLE ( 'NONE', #25, 2.000000000000000000 ) ;
#193 = EDGE_LOOP ( 'NONE', ( #12 ) ) ;
#194 = PRODUCT ( '35674', '35674', '', ( #19 ) ) ;
#195 = CARTESIAN_POINT ( 'NONE',  ( 2.094888803305880013E-14, 1.874699728327321189E-32, 6.000000000000000000 ) ) ;
#196 = DIRECTION ( 'NONE',  ( -3.491481338843133355E-15, 1.224646799147353207E-16, -1.000000000000000000 ) ) ;
#197 = LOCAL_TIME ( 10, 17, 53.00000000000000000, #54 ) ;
#198 = EDGE_LOOP ( 'NONE', ( #121 ) ) ;
#199 = APPLICATION_PROTOCOL_DEFINITION ( 'international standard', 'config_control_design', 1994, #126 ) ;
#200 = FACE_BOUND ( 'NONE', #198, .T. ) ;
#201 = EDGE_CURVE ( 'NONE', #191, #191, #138, .T. ) ;
#202 = CC_DESIGN_APPROVAL ( #159, ( #3 ) ) ;
#203 = APPROVAL_DATE_TIME ( #39, #159 ) ;
ENDSEC;
END-ISO-10303-21;
