ISO-10303-21;
HEADER;
FILE_DESCRIPTION (( 'STEP AP203' ),
    '1' );
FILE_NAME ('35673.step',
    '2021-11-24T09:17:53',
    ( '' ),
    ( '' ),
    'SwSTEP 2.0',
    'SolidWorks 2019',
    '' );
FILE_SCHEMA (( 'CONFIG_CONTROL_DESIGN' ));
ENDSEC;

DATA;
#1 = ORIENTED_EDGE ( 'NONE', *, *, #96, .T. ) ;
#2 = EDGE_LOOP ( 'NONE', ( #107 ) ) ;
#3 = APPROVAL_PERSON_ORGANIZATION ( #86, #116, #59 ) ;
#4 = VERTEX_POINT ( 'NONE', #193 ) ;
#5 = DIRECTION ( 'NONE',  ( 3.491481338843133355E-15, -1.224646799147353207E-16, 1.000000000000000000 ) ) ;
#6 = CARTESIAN_POINT ( 'NONE',  ( 0.0000000000000000000, 0.0000000000000000000, 0.0000000000000000000 ) ) ;
#7 = MANIFOLD_SOLID_BREP ( 'Corps-Déplacer/Copier1[1]', #75 ) ;
#8 = CARTESIAN_POINT ( 'NONE',  ( -8.551662891793915461E-31, 2.999519565323715216E-32, -2.449293598294706414E-16 ) ) ;
#9 = MANIFOLD_SOLID_BREP ( 'Corps-Déplacer/Copier1[2]', #153 ) ;
#10 = CARTESIAN_POINT ( 'NONE',  ( 1.745740669421566678E-13, 1.599999999999994316, 50.00000000000000000 ) ) ;
#11 = EDGE_CURVE ( 'NONE', #127, #127, #150, .T. ) ;
#12 =( LENGTH_UNIT ( ) NAMED_UNIT ( * ) SI_UNIT ( .MILLI., .METRE. ) );
#13 = AXIS2_PLACEMENT_3D ( 'NONE', #84, #112, #196 ) ;
#14 = APPROVAL_DATE_TIME ( #32, #116 ) ;
#15 = COORDINATED_UNIVERSAL_TIME_OFFSET ( 1, 0, .AHEAD. ) ;
#16 = VERTEX_POINT ( 'NONE', #167 ) ;
#17 = APPLICATION_PROTOCOL_DEFINITION ( 'international standard', 'config_control_design', 1994, #71 ) ;
#18 = CIRCLE ( 'NONE', #63, 2.000000000000000000 ) ;
#19 = ADVANCED_FACE ( 'NONE', ( #94 ), #83, .T. ) ;
#20 = ADVANCED_FACE ( 'NONE', ( #194 ), #163, .T. ) ;
#21 = ORIENTED_EDGE ( 'NONE', *, *, #155, .F. ) ;
#22 = CARTESIAN_POINT ( 'NONE',  ( 1.745740669421566678E-13, 1.199807826129477328E-32, 50.00000000000000000 ) ) ;
#23 = LOCAL_TIME ( 10, 17, 53.00000000000000000, #114 ) ;
#24 = DIRECTION ( 'NONE',  ( -3.491481338843133355E-15, 1.224646799147353207E-16, -1.000000000000000000 ) ) ;
#25 = CARTESIAN_POINT ( 'NONE',  ( 1.731774744066194397E-13, -6.074248123770872657E-15, 49.60000000000000853 ) ) ;
#26 = ORGANIZATION ( 'UNSPECIFIED', 'UNSPECIFIED', '' ) ;
#27 = ADVANCED_FACE ( 'NONE', ( #145, #159 ), #187, .T. ) ;
#28 = CARTESIAN_POINT ( 'NONE',  ( 1.745740669421566678E-14, -6.123233995736766282E-16, 5.000000000000000000 ) ) ;
#29 =( NAMED_UNIT ( * ) SI_UNIT ( $, .STERADIAN. ) SOLID_ANGLE_UNIT ( ) );
#30 = DATE_TIME_ROLE ( 'classification_date' ) ;
#31 = CIRCLE ( 'NONE', #172, 1.999999999999999556 ) ;
#32 = DATE_AND_TIME ( #61, #39 ) ;
#33 = CARTESIAN_POINT ( 'NONE',  ( 1.731774744066194397E-13, 1.999999999999994005, 49.60000000000000853 ) ) ;
#34 = PERSON_AND_ORGANIZATION ( #67, #26 ) ;
#35 = APPROVAL_PERSON_ORGANIZATION ( #169, #183, #36 ) ;
#36 = APPROVAL_ROLE ( '' ) ;
#37 = PRODUCT_DEFINITION ( 'UNKNOWN', '', #125, #119 ) ;
#38 = DIRECTION ( 'NONE',  ( -3.491481338843133355E-15, 1.224646799147353207E-16, -1.000000000000000000 ) ) ;
#39 = LOCAL_TIME ( 10, 17, 53.00000000000000000, #185 ) ;
#40 = DIRECTION ( 'NONE',  ( 0.0000000000000000000, 1.000000000000000000, 0.0000000000000000000 ) ) ;
#41 = DIRECTION ( 'NONE',  ( -3.491481338843133355E-15, 1.224646799147353207E-16, -1.000000000000000000 ) ) ;
#42 = DIRECTION ( 'NONE',  ( -4.275831445896958607E-31, -1.000000000000000000, -1.224646799147353207E-16 ) ) ;
#43 = CALENDAR_DATE ( 2021, 24, 11 ) ;
#44 = PERSON_AND_ORGANIZATION_ROLE ( 'creator' ) ;
#45 = CC_DESIGN_PERSON_AND_ORGANIZATION_ASSIGNMENT ( #168, #44, ( #125 ) ) ;
#46 = CALENDAR_DATE ( 2021, 24, 11 ) ;
#47 = LOCAL_TIME ( 10, 17, 53.00000000000000000, #15 ) ;
#48 = EDGE_LOOP ( 'NONE', ( #123 ) ) ;
#49 = AXIS2_PLACEMENT_3D ( 'NONE', #6, #195, #131 ) ;
#50 = DIRECTION ( 'NONE',  ( 4.275831445896958607E-31, 1.000000000000000000, 1.224646799147353207E-16 ) ) ;
#51 = DIRECTION ( 'NONE',  ( 0.0000000000000000000, 1.000000000000000000, 0.0000000000000000000 ) ) ;
#52 = DIRECTION ( 'NONE',  ( -3.491481338843133355E-15, 1.224646799147353207E-16, -1.000000000000000000 ) ) ;
#53 = DIRECTION ( 'NONE',  ( 4.275831445896958607E-31, 1.000000000000000000, 1.224646799147353207E-16 ) ) ;
#54 = DIRECTION ( 'NONE',  ( 4.275831445896958607E-31, 1.000000000000000000, 1.224646799147353207E-16 ) ) ;
#55 = MECHANICAL_CONTEXT ( 'NONE', #71, 'mechanical' ) ;
#56 = VERTEX_POINT ( 'NONE', #33 ) ;
#57 = APPROVAL_DATE_TIME ( #148, #198 ) ;
#58 = UNCERTAINTY_MEASURE_WITH_UNIT (LENGTH_MEASURE( 1.000000000000000082E-05 ), #12, 'distance_accuracy_value', 'NONE');
#59 = APPROVAL_ROLE ( '' ) ;
#60 = PRODUCT ( '35673', '35673', '', ( #55 ) ) ;
#61 = CALENDAR_DATE ( 2021, 24, 11 ) ;
#62 = ORIENTED_EDGE ( 'NONE', *, *, #65, .T. ) ;
#63 = AXIS2_PLACEMENT_3D ( 'NONE', #197, #52, #51 ) ;
#64 = CIRCLE ( 'NONE', #141, 2.000000000000000000 ) ;
#65 = EDGE_CURVE ( 'NONE', #70, #70, #64, .T. ) ;
#66 = DIRECTION ( 'NONE',  ( 4.275831445896958607E-31, 1.000000000000000000, 1.224646799147353207E-16 ) ) ;
#67 = PERSON ( 'UNSPECIFIED', 'UNSPECIFIED', 'UNSPECIFIED', ('UNSPECIFIED'), ('UNSPECIFIED'), ('UNSPECIFIED') ) ;
#68 = DIRECTION ( 'NONE',  ( -3.491481338843133355E-15, 1.224646799147353207E-16, -1.000000000000000000 ) ) ;
#69 = CARTESIAN_POINT ( 'NONE',  ( -4.275831445896957731E-31, 1.499759782661857608E-32, -1.224646799147353207E-16 ) ) ;
#70 = VERTEX_POINT ( 'NONE', #142 ) ;
#71 = APPLICATION_CONTEXT ( 'configuration controlled 3d designs of mechanical parts and assemblies' ) ;
#72 = CARTESIAN_POINT ( 'NONE',  ( 0.0000000000000000000, 0.0000000000000000000, 0.0000000000000000000 ) ) ;
#73 = PRODUCT_RELATED_PRODUCT_CATEGORY ( 'detail', '', ( #60 ) ) ;
#74 = CALENDAR_DATE ( 2021, 24, 11 ) ;
#75 = CLOSED_SHELL ( 'NONE', ( #124, #189, #27, #87 ) ) ;
#76 = AXIS2_PLACEMENT_3D ( 'NONE', #25, #182, #175 ) ;
#77 = DATE_AND_TIME ( #74, #23 ) ;
#78 = EDGE_LOOP ( 'NONE', ( #174 ) ) ;
#79 = CC_DESIGN_DATE_AND_TIME_ASSIGNMENT ( #77, #120, ( #37 ) ) ;
#80 = FACE_OUTER_BOUND ( 'NONE', #2, .T. ) ;
#81 = DIRECTION ( 'NONE',  ( 0.0000000000000000000, 1.000000000000000000, 0.0000000000000000000 ) ) ;
#82 = CYLINDRICAL_SURFACE ( 'NONE', #49, 2.000000000000000000 ) ;
#83 = PLANE ( 'NONE',  #13 ) ;
#84 = CARTESIAN_POINT ( 'NONE',  ( 1.745740669421566678E-14, 1.499759782661856239E-32, 5.000000000000000000 ) ) ;
#85 = CC_DESIGN_PERSON_AND_ORGANIZATION_ASSIGNMENT ( #102, #139, ( #129 ) ) ;
#86 = PERSON_AND_ORGANIZATION ( #67, #26 ) ;
#87 = ADVANCED_FACE ( 'NONE', ( #156 ), #161, .F. ) ;
#88 = APPROVAL_STATUS ( 'not_yet_approved' ) ;
#89 = APPROVAL_DATE_TIME ( #103, #183 ) ;
#90 = ORIENTED_EDGE ( 'NONE', *, *, #11, .T. ) ;
#91 = ORIENTED_EDGE ( 'NONE', *, *, #96, .F. ) ;
#92 = DIRECTION ( 'NONE',  ( -3.491481338843133355E-15, 1.224646799147353207E-16, -1.000000000000000000 ) ) ;
#93 = LOCAL_TIME ( 10, 17, 53.00000000000000000, #190 ) ;
#94 = FACE_OUTER_BOUND ( 'NONE', #95, .T. ) ;
#95 = EDGE_LOOP ( 'NONE', ( #21 ) ) ;
#96 = EDGE_CURVE ( 'NONE', #4, #4, #181, .T. ) ;
#97 = CARTESIAN_POINT ( 'NONE',  ( 0.0000000000000000000, 0.0000000000000000000, 0.0000000000000000000 ) ) ;
#98 = CARTESIAN_POINT ( 'NONE',  ( 1.745740669421566678E-14, 1.499759782661856239E-32, 5.000000000000000000 ) ) ;
#99 = SHAPE_DEFINITION_REPRESENTATION ( #201, #158 ) ;
#100 = SECURITY_CLASSIFICATION_LEVEL ( 'unclassified' ) ;
#101 = CC_DESIGN_DATE_AND_TIME_ASSIGNMENT ( #186, #30, ( #129 ) ) ;
#102 = PERSON_AND_ORGANIZATION ( #67, #26 ) ;
#103 = DATE_AND_TIME ( #46, #93 ) ;
#104 = AXIS2_PLACEMENT_3D ( 'NONE', #144, #24, #160 ) ;
#105 = EDGE_LOOP ( 'NONE', ( #91 ) ) ;
#106 = AXIS2_PLACEMENT_3D ( 'NONE', #69, #68, #54 ) ;
#107 = ORIENTED_EDGE ( 'NONE', *, *, #65, .F. ) ;
#108 = FACE_OUTER_BOUND ( 'NONE', #105, .T. ) ;
#109 = EDGE_LOOP ( 'NONE', ( #1 ) ) ;
#110 = PLANE ( 'NONE',  #138 ) ;
#111 = CYLINDRICAL_SURFACE ( 'NONE', #170, 2.000000000000000000 ) ;
#112 = DIRECTION ( 'NONE',  ( 3.491481338843133355E-15, -1.224646799147353207E-16, 1.000000000000000000 ) ) ;
#113 = LOCAL_TIME ( 10, 17, 53.00000000000000000, #165 ) ;
#114 = COORDINATED_UNIVERSAL_TIME_OFFSET ( 1, 0, .AHEAD. ) ;
#115 = PERSON_AND_ORGANIZATION ( #67, #26 ) ;
#116 = APPROVAL ( #134, 'UNSPECIFIED' ) ;
#117 = CC_DESIGN_APPROVAL ( #183, ( #129 ) ) ;
#118 = APPLICATION_PROTOCOL_DEFINITION ( 'international standard', 'config_control_design', 1994, #133 ) ;
#119 = DESIGN_CONTEXT ( 'detailed design', #133, 'design' ) ;
#120 = DATE_TIME_ROLE ( 'creation_date' ) ;
#121 = EDGE_CURVE ( 'NONE', #56, #56, #18, .T. ) ;
#122 = AXIS2_PLACEMENT_3D ( 'NONE', #72, #149, #147 ) ;
#123 = ORIENTED_EDGE ( 'NONE', *, *, #11, .F. ) ;
#124 = ADVANCED_FACE ( 'NONE', ( #132 ), #110, .F. ) ;
#125 = PRODUCT_DEFINITION_FORMATION_WITH_SPECIFIED_SOURCE ( 'ANY', '', #60, .NOT_KNOWN. ) ;
#126 = ORIENTED_EDGE ( 'NONE', *, *, #121, .T. ) ;
#127 = VERTEX_POINT ( 'NONE', #10 ) ;
#128 = EDGE_LOOP ( 'NONE', ( #140 ) ) ;
#129 = SECURITY_CLASSIFICATION ( '', '', #100 ) ;
#130 = FACE_OUTER_BOUND ( 'NONE', #78, .T. ) ;
#131 = DIRECTION ( 'NONE',  ( 4.275831445896958607E-31, 1.000000000000000000, 1.224646799147353207E-16 ) ) ;
#132 = FACE_OUTER_BOUND ( 'NONE', #109, .T. ) ;
#133 = APPLICATION_CONTEXT ( 'configuration controlled 3d designs of mechanical parts and assemblies' ) ;
#134 = APPROVAL_STATUS ( 'not_yet_approved' ) ;
#135 = AXIS2_PLACEMENT_3D ( 'NONE', #28, #179, #81 ) ;
#136 = APPROVAL_ROLE ( '' ) ;
#137 = PERSON_AND_ORGANIZATION_ROLE ( 'creator' ) ;
#138 = AXIS2_PLACEMENT_3D ( 'NONE', #98, #5, #42 ) ;
#139 = PERSON_AND_ORGANIZATION_ROLE ( 'classification_officer' ) ;
#140 = ORIENTED_EDGE ( 'NONE', *, *, #121, .F. ) ;
#141 = AXIS2_PLACEMENT_3D ( 'NONE', #8, #92, #50 ) ;
#142 = CARTESIAN_POINT ( 'NONE',  ( 1.710569414459005214E-46, 2.000000000000000000, 0.0000000000000000000 ) ) ;
#143 = CC_DESIGN_PERSON_AND_ORGANIZATION_ASSIGNMENT ( #34, #202, ( #60 ) ) ;
#144 = CARTESIAN_POINT ( 'NONE',  ( 1.745740669421566678E-13, -6.123233995736766085E-15, 50.00000000000000000 ) ) ;
#145 = FACE_BOUND ( 'NONE', #152, .T. ) ;
#146 = CARTESIAN_POINT ( 'NONE',  ( 1.745740669421566678E-14, -6.123233995736766282E-16, 5.000000000000000000 ) ) ;
#147 = DIRECTION ( 'NONE',  ( 1.000000000000000000, 0.0000000000000000000, 0.0000000000000000000 ) ) ;
#148 = DATE_AND_TIME ( #166, #113 ) ;
#149 = DIRECTION ( 'NONE',  ( 0.0000000000000000000, 0.0000000000000000000, 1.000000000000000000 ) ) ;
#150 = CIRCLE ( 'NONE', #104, 1.600000000000000311 ) ;
#151 = AXIS2_PLACEMENT_3D ( 'NONE', #22, #38, #53 ) ;
#152 = EDGE_LOOP ( 'NONE', ( #90 ) ) ;
#153 = CLOSED_SHELL ( 'NONE', ( #20, #178, #19 ) ) ;
#154 = CC_DESIGN_SECURITY_CLASSIFICATION ( #129, ( #125 ) ) ;
#155 = EDGE_CURVE ( 'NONE', #16, #16, #31, .T. ) ;
#156 = FACE_OUTER_BOUND ( 'NONE', #48, .T. ) ;
#157 = CC_DESIGN_APPROVAL ( #116, ( #37 ) ) ;
#158 = ADVANCED_BREP_SHAPE_REPRESENTATION ( '35673', ( #7, #9, #122 ), #199 ) ;
#159 = FACE_OUTER_BOUND ( 'NONE', #128, .T. ) ;
#160 = DIRECTION ( 'NONE',  ( 0.0000000000000000000, 1.000000000000000000, 0.0000000000000000000 ) ) ;
#161 = PLANE ( 'NONE',  #151 ) ;
#162 = CC_DESIGN_APPROVAL ( #198, ( #125 ) ) ;
#163 = PLANE ( 'NONE',  #106 ) ;
#164 = APPROVAL_STATUS ( 'not_yet_approved' ) ;
#165 = COORDINATED_UNIVERSAL_TIME_OFFSET ( 1, 0, .AHEAD. ) ;
#166 = CALENDAR_DATE ( 2021, 24, 11 ) ;
#167 = CARTESIAN_POINT ( 'NONE',  ( 1.745740669421566678E-14, 1.999999999999999112, 5.000000000000000000 ) ) ;
#168 = PERSON_AND_ORGANIZATION ( #67, #26 ) ;
#169 = PERSON_AND_ORGANIZATION ( #67, #26 ) ;
#170 = AXIS2_PLACEMENT_3D ( 'NONE', #97, #41, #66 ) ;
#171 = EDGE_LOOP ( 'NONE', ( #126 ) ) ;
#172 = AXIS2_PLACEMENT_3D ( 'NONE', #146, #176, #40 ) ;
#173 = CC_DESIGN_PERSON_AND_ORGANIZATION_ASSIGNMENT ( #115, #188, ( #125 ) ) ;
#174 = ORIENTED_EDGE ( 'NONE', *, *, #155, .T. ) ;
#175 = DIRECTION ( 'NONE',  ( 0.0000000000000000000, 1.000000000000000000, 0.0000000000000000000 ) ) ;
#176 = DIRECTION ( 'NONE',  ( -3.491481338843133355E-15, 1.224646799147353207E-16, -1.000000000000000000 ) ) ;
#177 = FACE_OUTER_BOUND ( 'NONE', #171, .T. ) ;
#178 = ADVANCED_FACE ( 'NONE', ( #130, #80 ), #82, .T. ) ;
#179 = DIRECTION ( 'NONE',  ( -3.491481338843133355E-15, 1.224646799147353207E-16, -1.000000000000000000 ) ) ;
#180 = APPROVAL_PERSON_ORGANIZATION ( #184, #198, #136 ) ;
#181 = CIRCLE ( 'NONE', #135, 1.999999999999999556 ) ;
#182 = DIRECTION ( 'NONE',  ( -3.491481338843133355E-15, 1.224646799147353207E-16, -1.000000000000000000 ) ) ;
#183 = APPROVAL ( #88, 'UNSPECIFIED' ) ;
#184 = PERSON_AND_ORGANIZATION ( #67, #26 ) ;
#185 = COORDINATED_UNIVERSAL_TIME_OFFSET ( 1, 0, .AHEAD. ) ;
#186 = DATE_AND_TIME ( #43, #47 ) ;
#187 = CONICAL_SURFACE ( 'NONE', #76, 2.000000000000000000, 0.7853981633974510546 ) ;
#188 = PERSON_AND_ORGANIZATION_ROLE ( 'design_supplier' ) ;
#189 = ADVANCED_FACE ( 'NONE', ( #177, #108 ), #111, .T. ) ;
#190 = COORDINATED_UNIVERSAL_TIME_OFFSET ( 1, 0, .AHEAD. ) ;
#191 = EDGE_LOOP ( 'NONE', ( #62 ) ) ;
#192 = CC_DESIGN_PERSON_AND_ORGANIZATION_ASSIGNMENT ( #200, #137, ( #37 ) ) ;
#193 = CARTESIAN_POINT ( 'NONE',  ( 1.745740669421566678E-14, 1.999999999999999112, 5.000000000000000000 ) ) ;
#194 = FACE_OUTER_BOUND ( 'NONE', #191, .T. ) ;
#195 = DIRECTION ( 'NONE',  ( -3.491481338843133355E-15, 1.224646799147353207E-16, -1.000000000000000000 ) ) ;
#196 = DIRECTION ( 'NONE',  ( -4.275831445896958607E-31, -1.000000000000000000, -1.224646799147353207E-16 ) ) ;
#197 = CARTESIAN_POINT ( 'NONE',  ( 1.731774744066194397E-13, -6.074248123770872657E-15, 49.60000000000000853 ) ) ;
#198 = APPROVAL ( #164, 'UNSPECIFIED' ) ;
#199 =( GEOMETRIC_REPRESENTATION_CONTEXT ( 3 ) GLOBAL_UNCERTAINTY_ASSIGNED_CONTEXT ( ( #58 ) ) GLOBAL_UNIT_ASSIGNED_CONTEXT ( ( #12, #203, #29 ) ) REPRESENTATION_CONTEXT ( 'NONE', 'WORKASPACE' ) );
#200 = PERSON_AND_ORGANIZATION ( #67, #26 ) ;
#201 = PRODUCT_DEFINITION_SHAPE ( 'NONE', 'NONE',  #37 ) ;
#202 = PERSON_AND_ORGANIZATION_ROLE ( 'design_owner' ) ;
#203 =( NAMED_UNIT ( * ) PLANE_ANGLE_UNIT ( ) SI_UNIT ( $, .RADIAN. ) );
ENDSEC;
END-ISO-10303-21;
