ISO-10303-21;
HEADER;
FILE_DESCRIPTION (( 'STEP AP203' ),
    '1' );
FILE_NAME ('35672.step',
    '2021-11-24T09:17:52',
    ( '' ),
    ( '' ),
    'SwSTEP 2.0',
    'SolidWorks 2019',
    '' );
FILE_SCHEMA (( 'CONFIG_CONTROL_DESIGN' ));
ENDSEC;

DATA;
#1 = MANIFOLD_SOLID_BREP ( 'Corps-Déplacer/Copier1[1]', #16 ) ;
#2 = AXIS2_PLACEMENT_3D ( 'NONE', #102, #3, #180 ) ;
#3 = DIRECTION ( 'NONE',  ( 3.491481338843133355E-15, -1.224646799147353207E-16, 1.000000000000000000 ) ) ;
#4 = DIRECTION ( 'NONE',  ( -3.491481338843133355E-15, 1.224646799147353207E-16, -1.000000000000000000 ) ) ;
#5 = EDGE_LOOP ( 'NONE', ( #51 ) ) ;
#6 = AXIS2_PLACEMENT_3D ( 'NONE', #13, #61, #124 ) ;
#7 = EDGE_LOOP ( 'NONE', ( #156 ) ) ;
#8 = DATE_AND_TIME ( #10, #58 ) ;
#9 = DIRECTION ( 'NONE',  ( -3.491481338843133355E-15, 1.224646799147353207E-16, -1.000000000000000000 ) ) ;
#10 = CALENDAR_DATE ( 2021, 24, 11 ) ;
#11 = VERTEX_POINT ( 'NONE', #48 ) ;
#12 = MECHANICAL_CONTEXT ( 'NONE', #147, 'mechanical' ) ;
#13 = CARTESIAN_POINT ( 'NONE',  ( 1.396592535537253342E-14, -4.898587196589412829E-16, 4.000000000000000000 ) ) ;
#14 = APPROVAL_STATUS ( 'not_yet_approved' ) ;
#15 = DATE_AND_TIME ( #134, #54 ) ;
#16 = CLOSED_SHELL ( 'NONE', ( #97, #44, #25, #109 ) ) ;
#17 = PRODUCT ( '35672', '35672', '', ( #12 ) ) ;
#18 = CC_DESIGN_APPROVAL ( #121, ( #21 ) ) ;
#19 = CC_DESIGN_DATE_AND_TIME_ASSIGNMENT ( #8, #201, ( #175 ) ) ;
#20 = EDGE_LOOP ( 'NONE', ( #53 ) ) ;
#21 = PRODUCT_DEFINITION_FORMATION_WITH_SPECIFIED_SOURCE ( 'ANY', '', #17, .NOT_KNOWN. ) ;
#22 = DIRECTION ( 'NONE',  ( -4.275831445896958607E-31, -1.000000000000000000, -1.224646799147353207E-16 ) ) ;
#23 = ORIENTED_EDGE ( 'NONE', *, *, #195, .F. ) ;
#24 = CC_DESIGN_APPROVAL ( #68, ( #175 ) ) ;
#25 = ADVANCED_FACE ( 'NONE', ( #179, #143 ), #194, .T. ) ;
#26 = FACE_OUTER_BOUND ( 'NONE', #117, .T. ) ;
#27 = DATE_AND_TIME ( #184, #34 ) ;
#28 = ADVANCED_FACE ( 'NONE', ( #73 ), #69, .T. ) ;
#29 = DIRECTION ( 'NONE',  ( 0.0000000000000000000, 1.000000000000000000, 0.0000000000000000000 ) ) ;
#30 = ADVANCED_BREP_SHAPE_REPRESENTATION ( '35672', ( #1, #139, #177 ), #126 ) ;
#31 = AXIS2_PLACEMENT_3D ( 'NONE', #57, #118, #99 ) ;
#32 = PERSON_AND_ORGANIZATION_ROLE ( 'classification_officer' ) ;
#33 = ADVANCED_FACE ( 'NONE', ( #42, #103 ), #71, .T. ) ;
#34 = LOCAL_TIME ( 10, 17, 52.00000000000000000, #167 ) ;
#35 = EDGE_LOOP ( 'NONE', ( #190 ) ) ;
#36 = CC_DESIGN_PERSON_AND_ORGANIZATION_ASSIGNMENT ( #110, #32, ( #175 ) ) ;
#37 = ORIENTED_EDGE ( 'NONE', *, *, #163, .F. ) ;
#38 = DIRECTION ( 'NONE',  ( 4.275831445896958607E-31, 1.000000000000000000, 1.224646799147353207E-16 ) ) ;
#39 = CIRCLE ( 'NONE', #200, 1.500000000000000000 ) ;
#40 = DIRECTION ( 'NONE',  ( 0.0000000000000000000, 1.000000000000000000, 0.0000000000000000000 ) ) ;
#41 = FACE_OUTER_BOUND ( 'NONE', #132, .T. ) ;
#42 = FACE_OUTER_BOUND ( 'NONE', #5, .T. ) ;
#43 = AXIS2_PLACEMENT_3D ( 'NONE', #146, #127, #192 ) ;
#44 = ADVANCED_FACE ( 'NONE', ( #130, #26 ), #52, .T. ) ;
#45 =( NAMED_UNIT ( * ) PLANE_ANGLE_UNIT ( ) SI_UNIT ( $, .RADIAN. ) );
#46 = APPROVAL_ROLE ( '' ) ;
#47 = APPROVAL_DATE_TIME ( #166, #121 ) ;
#48 = CARTESIAN_POINT ( 'NONE',  ( 1.316288464743861212E-13, 1.499999999999995559, 37.69999999999999574 ) ) ;
#49 = PERSON_AND_ORGANIZATION ( #148, #77 ) ;
#50 = CC_DESIGN_PERSON_AND_ORGANIZATION_ASSIGNMENT ( #49, #173, ( #21 ) ) ;
#51 = ORIENTED_EDGE ( 'NONE', *, *, #188, .T. ) ;
#52 = CYLINDRICAL_SURFACE ( 'NONE', #154, 1.500000000000000000 ) ;
#53 = ORIENTED_EDGE ( 'NONE', *, *, #155, .F. ) ;
#54 = LOCAL_TIME ( 10, 17, 52.00000000000000000, #138 ) ;
#55 = EDGE_LOOP ( 'NONE', ( #193 ) ) ;
#56 = PLANE ( 'NONE',  #145 ) ;
#57 = CARTESIAN_POINT ( 'NONE',  ( -6.413747168845438786E-31, 2.249639673992786412E-32, -1.836970198721029934E-16 ) ) ;
#58 = LOCAL_TIME ( 10, 17, 52.00000000000000000, #137 ) ;
#59 = VERTEX_POINT ( 'NONE', #133 ) ;
#60 = UNCERTAINTY_MEASURE_WITH_UNIT (LENGTH_MEASURE( 1.000000000000000082E-05 ), #65, 'distance_accuracy_value', 'NONE');
#61 = DIRECTION ( 'NONE',  ( -3.491481338843133355E-15, 1.224646799147353207E-16, -1.000000000000000000 ) ) ;
#62 = AXIS2_PLACEMENT_3D ( 'NONE', #115, #178, #40 ) ;
#63 = PERSON_AND_ORGANIZATION ( #148, #77 ) ;
#64 = CC_DESIGN_PERSON_AND_ORGANIZATION_ASSIGNMENT ( #63, #123, ( #17 ) ) ;
#65 =( LENGTH_UNIT ( ) NAMED_UNIT ( * ) SI_UNIT ( .MILLI., .METRE. ) );
#66 = APPROVAL_ROLE ( '' ) ;
#67 = AXIS2_PLACEMENT_3D ( 'NONE', #87, #85, #116 ) ;
#68 = APPROVAL ( #14, 'UNSPECIFIED' ) ;
#69 = PLANE ( 'NONE',  #2 ) ;
#70 = DIRECTION ( 'NONE',  ( 3.491481338843133355E-15, -1.224646799147353207E-16, 1.000000000000000000 ) ) ;
#71 = CYLINDRICAL_SURFACE ( 'NONE', #43, 1.500000000000000000 ) ;
#72 = CC_DESIGN_DATE_AND_TIME_ASSIGNMENT ( #27, #81, ( #203 ) ) ;
#73 = FACE_OUTER_BOUND ( 'NONE', #55, .T. ) ;
#74 = DIRECTION ( 'NONE',  ( 0.0000000000000000000, 1.000000000000000000, 0.0000000000000000000 ) ) ;
#75 = APPROVAL_DATE_TIME ( #171, #68 ) ;
#76 = VERTEX_POINT ( 'NONE', #90 ) ;
#77 = ORGANIZATION ( 'UNSPECIFIED', 'UNSPECIFIED', '' ) ;
#78 = CARTESIAN_POINT ( 'NONE',  ( 0.0000000000000000000, 1.500000000000000000, 0.0000000000000000000 ) ) ;
#79 = VERTEX_POINT ( 'NONE', #172 ) ;
#80 = DESIGN_CONTEXT ( 'detailed design', #95, 'design' ) ;
#81 = DATE_TIME_ROLE ( 'creation_date' ) ;
#82 = LOCAL_TIME ( 10, 17, 52.00000000000000000, #202 ) ;
#83 = EDGE_LOOP ( 'NONE', ( #112 ) ) ;
#84 = DIRECTION ( 'NONE',  ( -3.491481338843133355E-15, 1.224646799147353207E-16, -1.000000000000000000 ) ) ;
#85 = DIRECTION ( 'NONE',  ( -3.491481338843133355E-15, 1.224646799147353207E-16, -1.000000000000000000 ) ) ;
#86 = CC_DESIGN_PERSON_AND_ORGANIZATION_ASSIGNMENT ( #106, #96, ( #21 ) ) ;
#87 = CARTESIAN_POINT ( 'NONE',  ( 1.316288464743861212E-13, -4.616918432785521081E-15, 37.69999999999999574 ) ) ;
#88 = AXIS2_PLACEMENT_3D ( 'NONE', #165, #176, #38 ) ;
#89 = COORDINATED_UNIVERSAL_TIME_OFFSET ( 1, 0, .AHEAD. ) ;
#90 = CARTESIAN_POINT ( 'NONE',  ( 1.396592535537253342E-14, 1.499999999999999556, 4.000000000000000000 ) ) ;
#91 = CIRCLE ( 'NONE', #31, 1.500000000000000000 ) ;
#92 = APPLICATION_PROTOCOL_DEFINITION ( 'international standard', 'config_control_design', 1994, #147 ) ;
#93 = CARTESIAN_POINT ( 'NONE',  ( 0.0000000000000000000, 0.0000000000000000000, 0.0000000000000000000 ) ) ;
#94 = APPROVAL_STATUS ( 'not_yet_approved' ) ;
#95 = APPLICATION_CONTEXT ( 'configuration controlled 3d designs of mechanical parts and assemblies' ) ;
#96 = PERSON_AND_ORGANIZATION_ROLE ( 'creator' ) ;
#97 = ADVANCED_FACE ( 'NONE', ( #158 ), #56, .F. ) ;
#98 = CARTESIAN_POINT ( 'NONE',  ( -3.206873584422719393E-31, 1.124819836996393206E-32, -9.184850993605149670E-17 ) ) ;
#99 = DIRECTION ( 'NONE',  ( 4.275831445896959482E-31, 1.000000000000000000, 1.224646799147353207E-16 ) ) ;
#100 = CARTESIAN_POINT ( 'NONE',  ( 1.396592535537253342E-14, -4.898587196589412829E-16, 4.000000000000000000 ) ) ;
#101 = CC_DESIGN_PERSON_AND_ORGANIZATION_ASSIGNMENT ( #199, #105, ( #203 ) ) ;
#102 = CARTESIAN_POINT ( 'NONE',  ( 1.396592535537253342E-14, 1.124819836996392658E-32, 4.000000000000000000 ) ) ;
#103 = FACE_OUTER_BOUND ( 'NONE', #20, .T. ) ;
#104 = CALENDAR_DATE ( 2021, 24, 11 ) ;
#105 = PERSON_AND_ORGANIZATION_ROLE ( 'creator' ) ;
#106 = PERSON_AND_ORGANIZATION ( #148, #77 ) ;
#107 = CIRCLE ( 'NONE', #6, 1.500000000000000000 ) ;
#108 = PERSON_AND_ORGANIZATION ( #148, #77 ) ;
#109 = ADVANCED_FACE ( 'NONE', ( #41 ), #128, .F. ) ;
#110 = PERSON_AND_ORGANIZATION ( #148, #77 ) ;
#111 = APPROVAL_PERSON_ORGANIZATION ( #119, #121, #153 ) ;
#112 = ORIENTED_EDGE ( 'NONE', *, *, #155, .T. ) ;
#113 = CARTESIAN_POINT ( 'NONE',  ( 1.396592535537253342E-14, 1.124819836996392658E-32, 4.000000000000000000 ) ) ;
#114 = APPROVAL_PERSON_ORGANIZATION ( #108, #68, #66 ) ;
#115 = CARTESIAN_POINT ( 'NONE',  ( 1.326762908760390423E-13, -4.653657836759941941E-15, 38.00000000000000000 ) ) ;
#116 = DIRECTION ( 'NONE',  ( 0.0000000000000000000, 1.000000000000000000, 0.0000000000000000000 ) ) ;
#117 = EDGE_LOOP ( 'NONE', ( #23 ) ) ;
#118 = DIRECTION ( 'NONE',  ( -3.491481338843133355E-15, 1.224646799147353207E-16, -1.000000000000000000 ) ) ;
#119 = PERSON_AND_ORGANIZATION ( #148, #77 ) ;
#120 =( NAMED_UNIT ( * ) SI_UNIT ( $, .STERADIAN. ) SOLID_ANGLE_UNIT ( ) );
#121 = APPROVAL ( #150, 'UNSPECIFIED' ) ;
#122 = CLOSED_SHELL ( 'NONE', ( #157, #33, #28 ) ) ;
#123 = PERSON_AND_ORGANIZATION_ROLE ( 'design_owner' ) ;
#124 = DIRECTION ( 'NONE',  ( 0.0000000000000000000, 1.000000000000000000, 0.0000000000000000000 ) ) ;
#125 = CALENDAR_DATE ( 2021, 24, 11 ) ;
#126 =( GEOMETRIC_REPRESENTATION_CONTEXT ( 3 ) GLOBAL_UNCERTAINTY_ASSIGNED_CONTEXT ( ( #60 ) ) GLOBAL_UNIT_ASSIGNED_CONTEXT ( ( #65, #45, #120 ) ) REPRESENTATION_CONTEXT ( 'NONE', 'WORKASPACE' ) );
#127 = DIRECTION ( 'NONE',  ( -3.491481338843133355E-15, 1.224646799147353207E-16, -1.000000000000000000 ) ) ;
#128 = PLANE ( 'NONE',  #88 ) ;
#129 = LOCAL_TIME ( 10, 17, 52.00000000000000000, #89 ) ;
#130 = FACE_OUTER_BOUND ( 'NONE', #7, .T. ) ;
#131 = ORIENTED_EDGE ( 'NONE', *, *, #163, .T. ) ;
#132 = EDGE_LOOP ( 'NONE', ( #37 ) ) ;
#133 = CARTESIAN_POINT ( 'NONE',  ( 1.396592535537253342E-14, 1.499999999999999556, 4.000000000000000000 ) ) ;
#134 = CALENDAR_DATE ( 2021, 24, 11 ) ;
#135 = APPROVAL_DATE_TIME ( #15, #191 ) ;
#136 = CC_DESIGN_SECURITY_CLASSIFICATION ( #175, ( #21 ) ) ;
#137 = COORDINATED_UNIVERSAL_TIME_OFFSET ( 1, 0, .AHEAD. ) ;
#138 = COORDINATED_UNIVERSAL_TIME_OFFSET ( 1, 0, .AHEAD. ) ;
#139 = MANIFOLD_SOLID_BREP ( 'Corps-Déplacer/Copier1[2]', #122 ) ;
#140 = SHAPE_DEFINITION_REPRESENTATION ( #174, #30 ) ;
#141 = CC_DESIGN_APPROVAL ( #191, ( #203 ) ) ;
#142 = EDGE_LOOP ( 'NONE', ( #162 ) ) ;
#143 = FACE_OUTER_BOUND ( 'NONE', #35, .T. ) ;
#144 = DIRECTION ( 'NONE',  ( 4.275831445896958607E-31, 1.000000000000000000, 1.224646799147353207E-16 ) ) ;
#145 = AXIS2_PLACEMENT_3D ( 'NONE', #113, #70, #22 ) ;
#146 = CARTESIAN_POINT ( 'NONE',  ( 0.0000000000000000000, 0.0000000000000000000, 0.0000000000000000000 ) ) ;
#147 = APPLICATION_CONTEXT ( 'configuration controlled 3d designs of mechanical parts and assemblies' ) ;
#148 = PERSON ( 'UNSPECIFIED', 'UNSPECIFIED', 'UNSPECIFIED', ('UNSPECIFIED'), ('UNSPECIFIED'), ('UNSPECIFIED') ) ;
#149 = CARTESIAN_POINT ( 'NONE',  ( 1.316288464743861212E-13, -4.616918432785521081E-15, 37.69999999999999574 ) ) ;
#150 = APPROVAL_STATUS ( 'not_yet_approved' ) ;
#151 = EDGE_CURVE ( 'NONE', #11, #11, #39, .T. ) ;
#152 = DIRECTION ( 'NONE',  ( 0.0000000000000000000, 0.0000000000000000000, 1.000000000000000000 ) ) ;
#153 = APPROVAL_ROLE ( '' ) ;
#154 = AXIS2_PLACEMENT_3D ( 'NONE', #196, #4, #197 ) ;
#155 = EDGE_CURVE ( 'NONE', #169, #169, #91, .T. ) ;
#156 = ORIENTED_EDGE ( 'NONE', *, *, #151, .T. ) ;
#157 = ADVANCED_FACE ( 'NONE', ( #182 ), #160, .T. ) ;
#158 = FACE_OUTER_BOUND ( 'NONE', #142, .T. ) ;
#159 = CIRCLE ( 'NONE', #170, 1.500000000000000000 ) ;
#160 = PLANE ( 'NONE',  #186 ) ;
#161 = DIRECTION ( 'NONE',  ( -3.491481338843133355E-15, 1.224646799147353207E-16, -1.000000000000000000 ) ) ;
#162 = ORIENTED_EDGE ( 'NONE', *, *, #195, .T. ) ;
#163 = EDGE_CURVE ( 'NONE', #79, #79, #164, .T. ) ;
#164 = CIRCLE ( 'NONE', #62, 1.199999999999999956 ) ;
#165 = CARTESIAN_POINT ( 'NONE',  ( 1.326762908760390423E-13, 8.998558695971077224E-33, 38.00000000000000000 ) ) ;
#166 = DATE_AND_TIME ( #104, #82 ) ;
#167 = COORDINATED_UNIVERSAL_TIME_OFFSET ( 1, 0, .AHEAD. ) ;
#168 = PRODUCT_RELATED_PRODUCT_CATEGORY ( 'detail', '', ( #17 ) ) ;
#169 = VERTEX_POINT ( 'NONE', #78 ) ;
#170 = AXIS2_PLACEMENT_3D ( 'NONE', #100, #161, #29 ) ;
#171 = DATE_AND_TIME ( #125, #129 ) ;
#172 = CARTESIAN_POINT ( 'NONE',  ( 1.326762908760390423E-13, 1.199999999999995293, 38.00000000000000000 ) ) ;
#173 = PERSON_AND_ORGANIZATION_ROLE ( 'design_supplier' ) ;
#174 = PRODUCT_DEFINITION_SHAPE ( 'NONE', 'NONE',  #203 ) ;
#175 = SECURITY_CLASSIFICATION ( '', '', #189 ) ;
#176 = DIRECTION ( 'NONE',  ( -3.491481338843133355E-15, 1.224646799147353207E-16, -1.000000000000000000 ) ) ;
#177 = AXIS2_PLACEMENT_3D ( 'NONE', #93, #152, #185 ) ;
#178 = DIRECTION ( 'NONE',  ( -3.491481338843133355E-15, 1.224646799147353207E-16, -1.000000000000000000 ) ) ;
#179 = FACE_BOUND ( 'NONE', #198, .T. ) ;
#180 = DIRECTION ( 'NONE',  ( -4.275831445896958607E-31, -1.000000000000000000, -1.224646799147353207E-16 ) ) ;
#181 = APPROVAL_PERSON_ORGANIZATION ( #187, #191, #46 ) ;
#182 = FACE_OUTER_BOUND ( 'NONE', #83, .T. ) ;
#183 = APPLICATION_PROTOCOL_DEFINITION ( 'international standard', 'config_control_design', 1994, #95 ) ;
#184 = CALENDAR_DATE ( 2021, 24, 11 ) ;
#185 = DIRECTION ( 'NONE',  ( 1.000000000000000000, 0.0000000000000000000, 0.0000000000000000000 ) ) ;
#186 = AXIS2_PLACEMENT_3D ( 'NONE', #98, #84, #144 ) ;
#187 = PERSON_AND_ORGANIZATION ( #148, #77 ) ;
#188 = EDGE_CURVE ( 'NONE', #59, #59, #159, .T. ) ;
#189 = SECURITY_CLASSIFICATION_LEVEL ( 'unclassified' ) ;
#190 = ORIENTED_EDGE ( 'NONE', *, *, #151, .F. ) ;
#191 = APPROVAL ( #94, 'UNSPECIFIED' ) ;
#192 = DIRECTION ( 'NONE',  ( 4.275831445896959482E-31, 1.000000000000000000, 1.224646799147353207E-16 ) ) ;
#193 = ORIENTED_EDGE ( 'NONE', *, *, #188, .F. ) ;
#194 = CONICAL_SURFACE ( 'NONE', #67, 1.500000000000000000, 0.7853981633974457255 ) ;
#195 = EDGE_CURVE ( 'NONE', #76, #76, #107, .T. ) ;
#196 = CARTESIAN_POINT ( 'NONE',  ( 0.0000000000000000000, 0.0000000000000000000, 0.0000000000000000000 ) ) ;
#197 = DIRECTION ( 'NONE',  ( 4.275831445896959482E-31, 1.000000000000000000, 1.224646799147353207E-16 ) ) ;
#198 = EDGE_LOOP ( 'NONE', ( #131 ) ) ;
#199 = PERSON_AND_ORGANIZATION ( #148, #77 ) ;
#200 = AXIS2_PLACEMENT_3D ( 'NONE', #149, #9, #74 ) ;
#201 = DATE_TIME_ROLE ( 'classification_date' ) ;
#202 = COORDINATED_UNIVERSAL_TIME_OFFSET ( 1, 0, .AHEAD. ) ;
#203 = PRODUCT_DEFINITION ( 'UNKNOWN', '', #21, #80 ) ;
ENDSEC;
END-ISO-10303-21;
