ISO-10303-21;
HEADER;
FILE_DESCRIPTION (( 'STEP AP203' ),
    '1' );
FILE_NAME ('35671.step',
    '2021-11-24T09:17:52',
    ( '' ),
    ( '' ),
    'SwSTEP 2.0',
    'SolidWorks 2019',
    '' );
FILE_SCHEMA (( 'CONFIG_CONTROL_DESIGN' ));
ENDSEC;

DATA;
#1 = APPLICATION_PROTOCOL_DEFINITION ( 'international standard', 'config_control_design', 1994, #145 ) ;
#2 = PERSON_AND_ORGANIZATION ( #166, #57 ) ;
#3 = DATE_TIME_ROLE ( 'creation_date' ) ;
#4 = EDGE_LOOP ( 'NONE', ( #199 ) ) ;
#5 = CC_DESIGN_DATE_AND_TIME_ASSIGNMENT ( #107, #86, ( #27 ) ) ;
#6 = DESIGN_CONTEXT ( 'detailed design', #145, 'design' ) ;
#7 = COORDINATED_UNIVERSAL_TIME_OFFSET ( 1, 0, .AHEAD. ) ;
#8 = EDGE_LOOP ( 'NONE', ( #38 ) ) ;
#9 = LOCAL_TIME ( 10, 17, 52.00000000000000000, #192 ) ;
#10 = PERSON_AND_ORGANIZATION_ROLE ( 'creator' ) ;
#11 = CARTESIAN_POINT ( 'NONE',  ( 1.047444401652939691E-14, -3.673940397442058882E-16, 2.999999999999999112 ) ) ;
#12 = CYLINDRICAL_SURFACE ( 'NONE', #41, 1.000000000000000222 ) ;
#13 = FACE_OUTER_BOUND ( 'NONE', #70, .T. ) ;
#14 = DIRECTION ( 'NONE',  ( 4.275831445896958607E-31, 1.000000000000000000, 1.224646799147353207E-16 ) ) ;
#15 = APPROVAL_PERSON_ORGANIZATION ( #157, #25, #91 ) ;
#16 = ORIENTED_EDGE ( 'NONE', *, *, #54, .T. ) ;
#17 = CARTESIAN_POINT ( 'NONE',  ( 1.047444401652939691E-14, 1.000000000000000000, 2.999999999999999112 ) ) ;
#18 = PERSON_AND_ORGANIZATION ( #166, #57 ) ;
#19 = AXIS2_PLACEMENT_3D ( 'NONE', #138, #168, #14 ) ;
#20 = COORDINATED_UNIVERSAL_TIME_OFFSET ( 1, 0, .AHEAD. ) ;
#21 =( NAMED_UNIT ( * ) PLANE_ANGLE_UNIT ( ) SI_UNIT ( $, .RADIAN. ) );
#22 = EDGE_CURVE ( 'NONE', #36, #36, #46, .T. ) ;
#23 = FACE_OUTER_BOUND ( 'NONE', #158, .T. ) ;
#24 = SHAPE_DEFINITION_REPRESENTATION ( #165, #108 ) ;
#25 = APPROVAL ( #69, 'UNSPECIFIED' ) ;
#26 = DATE_AND_TIME ( #65, #63 ) ;
#27 = SECURITY_CLASSIFICATION ( '', '', #105 ) ;
#28 = CC_DESIGN_PERSON_AND_ORGANIZATION_ASSIGNMENT ( #2, #40, ( #27 ) ) ;
#29 = DIRECTION ( 'NONE',  ( -3.491481338843133355E-15, 1.224646799147353207E-16, -1.000000000000000000 ) ) ;
#30 = DIRECTION ( 'NONE',  ( -4.275831445896958607E-31, -1.000000000000000000, -1.224646799147353207E-16 ) ) ;
#31 = DIRECTION ( 'NONE',  ( 3.491481338843133355E-15, -1.224646799147353207E-16, 1.000000000000000000 ) ) ;
#32 = CIRCLE ( 'NONE', #178, 1.000000000000000444 ) ;
#33 = DIRECTION ( 'NONE',  ( -3.491481338843133355E-15, 1.224646799147353207E-16, -1.000000000000000000 ) ) ;
#34 = PERSON_AND_ORGANIZATION ( #166, #57 ) ;
#35 = AXIS2_PLACEMENT_3D ( 'NONE', #197, #153, #60 ) ;
#36 = VERTEX_POINT ( 'NONE', #120 ) ;
#37 = LOCAL_TIME ( 10, 17, 52.00000000000000000, #7 ) ;
#38 = ORIENTED_EDGE ( 'NONE', *, *, #106, .F. ) ;
#39 = EDGE_LOOP ( 'NONE', ( #160 ) ) ;
#40 = PERSON_AND_ORGANIZATION_ROLE ( 'classification_officer' ) ;
#41 = AXIS2_PLACEMENT_3D ( 'NONE', #154, #181, #48 ) ;
#42 = CC_DESIGN_DATE_AND_TIME_ASSIGNMENT ( #26, #3, ( #59 ) ) ;
#43 = ORIENTED_EDGE ( 'NONE', *, *, #188, .T. ) ;
#44 = ADVANCED_FACE ( 'NONE', ( #164, #58 ), #201, .T. ) ;
#45 = DIRECTION ( 'NONE',  ( -3.491481338843133355E-15, 1.224646799147353207E-16, -1.000000000000000000 ) ) ;
#46 = CIRCLE ( 'NONE', #35, 0.8000000000000003775 ) ;
#47 = PLANE ( 'NONE',  #193 ) ;
#48 = DIRECTION ( 'NONE',  ( 4.275831445896958607E-31, 1.000000000000000000, 1.224646799147353207E-16 ) ) ;
#49 =( NAMED_UNIT ( * ) SI_UNIT ( $, .STERADIAN. ) SOLID_ANGLE_UNIT ( ) );
#50 = VERTEX_POINT ( 'NONE', #189 ) ;
#51 = CC_DESIGN_APPROVAL ( #25, ( #27 ) ) ;
#52 = CARTESIAN_POINT ( 'NONE',  ( 0.0000000000000000000, 0.0000000000000000000, 0.0000000000000000000 ) ) ;
#53 = CALENDAR_DATE ( 2021, 24, 11 ) ;
#54 = EDGE_CURVE ( 'NONE', #50, #50, #118, .T. ) ;
#55 = EDGE_LOOP ( 'NONE', ( #87 ) ) ;
#56 = DATE_AND_TIME ( #179, #9 ) ;
#57 = ORGANIZATION ( 'UNSPECIFIED', 'UNSPECIFIED', '' ) ;
#58 = FACE_OUTER_BOUND ( 'NONE', #180, .T. ) ;
#59 = PRODUCT_DEFINITION ( 'UNKNOWN', '', #90, #6 ) ;
#60 = DIRECTION ( 'NONE',  ( 0.0000000000000000000, 1.000000000000000000, 0.0000000000000000000 ) ) ;
#61 = DIRECTION ( 'NONE',  ( 0.0000000000000000000, 1.000000000000000000, 0.0000000000000000000 ) ) ;
#62 = DIRECTION ( 'NONE',  ( 0.0000000000000000000, 1.000000000000000000, 0.0000000000000000000 ) ) ;
#63 = LOCAL_TIME ( 10, 17, 52.00000000000000000, #20 ) ;
#64 = APPROVAL_DATE_TIME ( #123, #159 ) ;
#65 = CALENDAR_DATE ( 2021, 24, 11 ) ;
#66 =( LENGTH_UNIT ( ) NAMED_UNIT ( * ) SI_UNIT ( .MILLI., .METRE. ) );
#67 = ADVANCED_FACE ( 'NONE', ( #128 ), #185, .F. ) ;
#68 = COORDINATED_UNIVERSAL_TIME_OFFSET ( 1, 0, .AHEAD. ) ;
#69 = APPROVAL_STATUS ( 'not_yet_approved' ) ;
#70 = EDGE_LOOP ( 'NONE', ( #150 ) ) ;
#71 = DATE_AND_TIME ( #174, #37 ) ;
#72 = APPROVAL_PERSON_ORGANIZATION ( #88, #81, #136 ) ;
#73 = CC_DESIGN_SECURITY_CLASSIFICATION ( #27, ( #90 ) ) ;
#74 = DIRECTION ( 'NONE',  ( -3.491481338843133355E-15, 1.224646799147353207E-16, -1.000000000000000000 ) ) ;
#75 = PRODUCT ( '35671', '35671', '', ( #122 ) ) ;
#76 = DIRECTION ( 'NONE',  ( -3.491481338843133355E-15, 1.224646799147353207E-16, -1.000000000000000000 ) ) ;
#77 = CARTESIAN_POINT ( 'NONE',  ( -4.275831445896957731E-31, 1.499759782661857608E-32, -1.224646799147353207E-16 ) ) ;
#78 = MANIFOLD_SOLID_BREP ( 'Corps-Déplacer/Copier1[2]', #183 ) ;
#79 = MANIFOLD_SOLID_BREP ( 'Corps-Déplacer/Copier1[1]', #148 ) ;
#80 = PERSON_AND_ORGANIZATION_ROLE ( 'design_owner' ) ;
#81 = APPROVAL ( #89, 'UNSPECIFIED' ) ;
#82 = CIRCLE ( 'NONE', #196, 0.9999999999999995559 ) ;
#83 = VERTEX_POINT ( 'NONE', #172 ) ;
#84 = PRODUCT_RELATED_PRODUCT_CATEGORY ( 'detail', '', ( #75 ) ) ;
#85 = CC_DESIGN_APPROVAL ( #159, ( #59 ) ) ;
#86 = DATE_TIME_ROLE ( 'classification_date' ) ;
#87 = ORIENTED_EDGE ( 'NONE', *, *, #188, .F. ) ;
#88 = PERSON_AND_ORGANIZATION ( #166, #57 ) ;
#89 = APPROVAL_STATUS ( 'not_yet_approved' ) ;
#90 = PRODUCT_DEFINITION_FORMATION_WITH_SPECIFIED_SOURCE ( 'ANY', '', #75, .NOT_KNOWN. ) ;
#91 = APPROVAL_ROLE ( '' ) ;
#92 = AXIS2_PLACEMENT_3D ( 'NONE', #94, #45, #116 ) ;
#93 = CARTESIAN_POINT ( 'NONE',  ( 1.047444401652939691E-14, 7.498798913309288039E-33, 2.999999999999999112 ) ) ;
#94 = CARTESIAN_POINT ( 'NONE',  ( 8.658873720330971983E-14, -3.037124061885436328E-15, 24.80000000000000426 ) ) ;
#95 = EDGE_LOOP ( 'NONE', ( #43 ) ) ;
#96 = FACE_OUTER_BOUND ( 'NONE', #55, .T. ) ;
#97 = CARTESIAN_POINT ( 'NONE',  ( 8.658873720330971983E-14, 0.9999999999999965583, 24.80000000000000426 ) ) ;
#98 = CC_DESIGN_PERSON_AND_ORGANIZATION_ASSIGNMENT ( #127, #10, ( #90 ) ) ;
#99 = PERSON_AND_ORGANIZATION_ROLE ( 'creator' ) ;
#100 = AXIS2_PLACEMENT_3D ( 'NONE', #93, #31, #30 ) ;
#101 = DIRECTION ( 'NONE',  ( 0.0000000000000000000, 0.0000000000000000000, 1.000000000000000000 ) ) ;
#102 = APPROVAL_STATUS ( 'not_yet_approved' ) ;
#103 = AXIS2_PLACEMENT_3D ( 'NONE', #77, #76, #163 ) ;
#104 = UNCERTAINTY_MEASURE_WITH_UNIT (LENGTH_MEASURE( 1.000000000000000082E-05 ), #66, 'distance_accuracy_value', 'NONE');
#105 = SECURITY_CLASSIFICATION_LEVEL ( 'unclassified' ) ;
#106 = EDGE_CURVE ( 'NONE', #170, #170, #82, .T. ) ;
#107 = DATE_AND_TIME ( #124, #139 ) ;
#108 = ADVANCED_BREP_SHAPE_REPRESENTATION ( '35671', ( #79, #78, #156 ), #121 ) ;
#109 = APPROVAL_DATE_TIME ( #56, #25 ) ;
#110 = AXIS2_PLACEMENT_3D ( 'NONE', #182, #33, #141 ) ;
#111 = ADVANCED_FACE ( 'NONE', ( #131 ), #47, .T. ) ;
#112 = CARTESIAN_POINT ( 'NONE',  ( -2.137915722948478865E-31, 7.498798913309288039E-33, -6.123233995736766036E-17 ) ) ;
#113 = CONICAL_SURFACE ( 'NONE', #92, 0.9999999999999995559, 0.7853981633974492782 ) ;
#114 = CARTESIAN_POINT ( 'NONE',  ( 8.658873720330971983E-14, -3.037124061885436328E-15, 24.80000000000000426 ) ) ;
#115 = ADVANCED_FACE ( 'NONE', ( #184, #186 ), #113, .T. ) ;
#116 = DIRECTION ( 'NONE',  ( 0.0000000000000000000, 1.000000000000000000, 0.0000000000000000000 ) ) ;
#117 = PLANE ( 'NONE',  #19 ) ;
#118 = CIRCLE ( 'NONE', #134, 1.000000000000000444 ) ;
#119 = PERSON_AND_ORGANIZATION ( #166, #57 ) ;
#120 = CARTESIAN_POINT ( 'NONE',  ( 8.728703347107833388E-14, 0.7999999999999973799, 25.00000000000000000 ) ) ;
#121 =( GEOMETRIC_REPRESENTATION_CONTEXT ( 3 ) GLOBAL_UNCERTAINTY_ASSIGNED_CONTEXT ( ( #104 ) ) GLOBAL_UNIT_ASSIGNED_CONTEXT ( ( #66, #21, #49 ) ) REPRESENTATION_CONTEXT ( 'NONE', 'WORKASPACE' ) );
#122 = MECHANICAL_CONTEXT ( 'NONE', #171, 'mechanical' ) ;
#123 = DATE_AND_TIME ( #53, #203 ) ;
#124 = CALENDAR_DATE ( 2021, 24, 11 ) ;
#125 = EDGE_LOOP ( 'NONE', ( #191 ) ) ;
#126 = EDGE_LOOP ( 'NONE', ( #16 ) ) ;
#127 = PERSON_AND_ORGANIZATION ( #166, #57 ) ;
#128 = FACE_OUTER_BOUND ( 'NONE', #126, .T. ) ;
#129 = ADVANCED_FACE ( 'NONE', ( #13, #96 ), #12, .T. ) ;
#130 = CARTESIAN_POINT ( 'NONE',  ( 1.047444401652939691E-14, -3.673940397442058882E-16, 2.999999999999999112 ) ) ;
#131 = FACE_OUTER_BOUND ( 'NONE', #95, .T. ) ;
#132 = DIRECTION ( 'NONE',  ( 4.275831445896958607E-31, 1.000000000000000000, 1.224646799147353207E-16 ) ) ;
#133 = CARTESIAN_POINT ( 'NONE',  ( 1.047444401652939691E-14, 7.498798913309288039E-33, 2.999999999999999112 ) ) ;
#134 = AXIS2_PLACEMENT_3D ( 'NONE', #130, #74, #61 ) ;
#135 = COORDINATED_UNIVERSAL_TIME_OFFSET ( 1, 0, .AHEAD. ) ;
#136 = APPROVAL_ROLE ( '' ) ;
#137 = CIRCLE ( 'NONE', #103, 1.000000000000000000 ) ;
#138 = CARTESIAN_POINT ( 'NONE',  ( 8.728703347107833388E-14, 5.999039130647388009E-33, 25.00000000000000000 ) ) ;
#139 = LOCAL_TIME ( 10, 17, 52.00000000000000000, #68 ) ;
#140 = DIRECTION ( 'NONE',  ( -3.491481338843133355E-15, 1.224646799147353207E-16, -1.000000000000000000 ) ) ;
#141 = DIRECTION ( 'NONE',  ( 4.275831445896958607E-31, 1.000000000000000000, 1.224646799147353207E-16 ) ) ;
#142 = VERTEX_POINT ( 'NONE', #17 ) ;
#143 = APPROVAL_ROLE ( '' ) ;
#144 = PLANE ( 'NONE',  #187 ) ;
#145 = APPLICATION_CONTEXT ( 'configuration controlled 3d designs of mechanical parts and assemblies' ) ;
#146 = DIRECTION ( 'NONE',  ( -4.275831445896958607E-31, -1.000000000000000000, -1.224646799147353207E-16 ) ) ;
#147 = ORIENTED_EDGE ( 'NONE', *, *, #177, .F. ) ;
#148 = CLOSED_SHELL ( 'NONE', ( #67, #44, #115, #152 ) ) ;
#149 = PERSON_AND_ORGANIZATION ( #166, #57 ) ;
#150 = ORIENTED_EDGE ( 'NONE', *, *, #177, .T. ) ;
#151 = DIRECTION ( 'NONE',  ( 0.0000000000000000000, 1.000000000000000000, 0.0000000000000000000 ) ) ;
#152 = ADVANCED_FACE ( 'NONE', ( #198 ), #117, .F. ) ;
#153 = DIRECTION ( 'NONE',  ( -3.491481338843133355E-15, 1.224646799147353207E-16, -1.000000000000000000 ) ) ;
#154 = CARTESIAN_POINT ( 'NONE',  ( 0.0000000000000000000, 0.0000000000000000000, 0.0000000000000000000 ) ) ;
#155 = DIRECTION ( 'NONE',  ( 3.491481338843133355E-15, -1.224646799147353207E-16, 1.000000000000000000 ) ) ;
#156 = AXIS2_PLACEMENT_3D ( 'NONE', #52, #101, #173 ) ;
#157 = PERSON_AND_ORGANIZATION ( #166, #57 ) ;
#158 = EDGE_LOOP ( 'NONE', ( #147 ) ) ;
#159 = APPROVAL ( #102, 'UNSPECIFIED' ) ;
#160 = ORIENTED_EDGE ( 'NONE', *, *, #106, .T. ) ;
#161 = CC_DESIGN_PERSON_AND_ORGANIZATION_ASSIGNMENT ( #18, #80, ( #75 ) ) ;
#162 = DIRECTION ( 'NONE',  ( -3.491481338843133355E-15, 1.224646799147353207E-16, -1.000000000000000000 ) ) ;
#163 = DIRECTION ( 'NONE',  ( 4.275831445896958607E-31, 1.000000000000000000, 1.224646799147353207E-16 ) ) ;
#164 = FACE_OUTER_BOUND ( 'NONE', #39, .T. ) ;
#165 = PRODUCT_DEFINITION_SHAPE ( 'NONE', 'NONE',  #59 ) ;
#166 = PERSON ( 'UNSPECIFIED', 'UNSPECIFIED', 'UNSPECIFIED', ('UNSPECIFIED'), ('UNSPECIFIED'), ('UNSPECIFIED') ) ;
#167 = APPROVAL_PERSON_ORGANIZATION ( #119, #159, #143 ) ;
#168 = DIRECTION ( 'NONE',  ( -3.491481338843133355E-15, 1.224646799147353207E-16, -1.000000000000000000 ) ) ;
#169 = APPLICATION_PROTOCOL_DEFINITION ( 'international standard', 'config_control_design', 1994, #171 ) ;
#170 = VERTEX_POINT ( 'NONE', #97 ) ;
#171 = APPLICATION_CONTEXT ( 'configuration controlled 3d designs of mechanical parts and assemblies' ) ;
#172 = CARTESIAN_POINT ( 'NONE',  ( 8.552847072295026068E-47, 1.000000000000000000, 0.0000000000000000000 ) ) ;
#173 = DIRECTION ( 'NONE',  ( 1.000000000000000000, 0.0000000000000000000, 0.0000000000000000000 ) ) ;
#174 = CALENDAR_DATE ( 2021, 24, 11 ) ;
#175 = ORIENTED_EDGE ( 'NONE', *, *, #54, .F. ) ;
#176 = APPROVAL_DATE_TIME ( #71, #81 ) ;
#177 = EDGE_CURVE ( 'NONE', #142, #142, #32, .T. ) ;
#178 = AXIS2_PLACEMENT_3D ( 'NONE', #11, #29, #151 ) ;
#179 = CALENDAR_DATE ( 2021, 24, 11 ) ;
#180 = EDGE_LOOP ( 'NONE', ( #175 ) ) ;
#181 = DIRECTION ( 'NONE',  ( -3.491481338843133355E-15, 1.224646799147353207E-16, -1.000000000000000000 ) ) ;
#182 = CARTESIAN_POINT ( 'NONE',  ( 0.0000000000000000000, 0.0000000000000000000, 0.0000000000000000000 ) ) ;
#183 = CLOSED_SHELL ( 'NONE', ( #111, #129, #195 ) ) ;
#184 = FACE_BOUND ( 'NONE', #125, .T. ) ;
#185 = PLANE ( 'NONE',  #100 ) ;
#186 = FACE_OUTER_BOUND ( 'NONE', #8, .T. ) ;
#187 = AXIS2_PLACEMENT_3D ( 'NONE', #133, #155, #146 ) ;
#188 = EDGE_CURVE ( 'NONE', #83, #83, #137, .T. ) ;
#189 = CARTESIAN_POINT ( 'NONE',  ( 1.047444401652939691E-14, 1.000000000000000000, 2.999999999999999112 ) ) ;
#190 = CC_DESIGN_PERSON_AND_ORGANIZATION_ASSIGNMENT ( #149, #194, ( #90 ) ) ;
#191 = ORIENTED_EDGE ( 'NONE', *, *, #22, .T. ) ;
#192 = COORDINATED_UNIVERSAL_TIME_OFFSET ( 1, 0, .AHEAD. ) ;
#193 = AXIS2_PLACEMENT_3D ( 'NONE', #112, #162, #132 ) ;
#194 = PERSON_AND_ORGANIZATION_ROLE ( 'design_supplier' ) ;
#195 = ADVANCED_FACE ( 'NONE', ( #23 ), #144, .T. ) ;
#196 = AXIS2_PLACEMENT_3D ( 'NONE', #114, #140, #62 ) ;
#197 = CARTESIAN_POINT ( 'NONE',  ( 8.728703347107833388E-14, -3.061616997868383043E-15, 25.00000000000000000 ) ) ;
#198 = FACE_OUTER_BOUND ( 'NONE', #4, .T. ) ;
#199 = ORIENTED_EDGE ( 'NONE', *, *, #22, .F. ) ;
#200 = CC_DESIGN_APPROVAL ( #81, ( #90 ) ) ;
#201 = CYLINDRICAL_SURFACE ( 'NONE', #110, 1.000000000000000000 ) ;
#202 = CC_DESIGN_PERSON_AND_ORGANIZATION_ASSIGNMENT ( #34, #99, ( #59 ) ) ;
#203 = LOCAL_TIME ( 10, 17, 52.00000000000000000, #135 ) ;
ENDSEC;
END-ISO-10303-21;
