ISO-10303-21;
HEADER;
FILE_DESCRIPTION (( 'STEP AP203' ),
    '1' );
FILE_NAME ('35666.step',
    '2021-11-24T08:31:52',
    ( '' ),
    ( '' ),
    'SwSTEP 2.0',
    'SolidWorks 2019',
    '' );
FILE_SCHEMA (( 'CONFIG_CONTROL_DESIGN' ));
ENDSEC;

DATA;
#1 =( NAMED_UNIT ( * ) PLANE_ANGLE_UNIT ( ) SI_UNIT ( $, .RADIAN. ) );
#2 = DIRECTION ( 'NONE',  ( -3.491481338843133355E-15, 1.224646799147353207E-16, -1.000000000000000000 ) ) ;
#3 = CC_DESIGN_APPROVAL ( #167, ( #9 ) ) ;
#4 = PERSON_AND_ORGANIZATION_ROLE ( 'design_owner' ) ;
#5 = DIRECTION ( 'NONE',  ( 0.0000000000000000000, 0.0000000000000000000, 1.000000000000000000 ) ) ;
#6 = PERSON_AND_ORGANIZATION ( #67, #134 ) ;
#7 = CC_DESIGN_APPROVAL ( #40, ( #164 ) ) ;
#8 = DATE_AND_TIME ( #85, #89 ) ;
#9 = PRODUCT_DEFINITION ( 'UNKNOWN', '', #108, #174 ) ;
#10 = CIRCLE ( 'NONE', #148, 1.999999999999999112 ) ;
#11 = EDGE_LOOP ( 'NONE', ( #93 ) ) ;
#12 = CARTESIAN_POINT ( 'NONE',  ( -2.336013133108092247E-31, 8.193631094058486888E-33, -6.690607528442658823E-17 ) ) ;
#13 = CARTESIAN_POINT ( 'NONE',  ( 1.745740669421566678E-13, 1.599999999999993205, 50.00000000000000000 ) ) ;
#14 = DIRECTION ( 'NONE',  ( 4.275831445896958607E-31, 1.000000000000000000, 1.224646799147353207E-16 ) ) ;
#15 = FACE_OUTER_BOUND ( 'NONE', #133, .T. ) ;
#16 = DIRECTION ( 'NONE',  ( -3.491481338843133355E-15, 1.224646799147353207E-16, -1.000000000000000000 ) ) ;
#17 = CC_DESIGN_PERSON_AND_ORGANIZATION_ASSIGNMENT ( #84, #145, ( #164 ) ) ;
#18 = CARTESIAN_POINT ( 'NONE',  ( 0.0000000000000000000, 0.0000000000000000000, 0.0000000000000000000 ) ) ;
#19 = CALENDAR_DATE ( 2021, 24, 11 ) ;
#20 = APPROVAL_ROLE ( '' ) ;
#21 = APPROVAL_DATE_TIME ( #51, #167 ) ;
#22 = PERSON_AND_ORGANIZATION ( #67, #134 ) ;
#23 = DIRECTION ( 'NONE',  ( -3.491481338843133355E-15, 1.224646799147353207E-16, -1.000000000000000000 ) ) ;
#24 = FACE_OUTER_BOUND ( 'NONE', #11, .T. ) ;
#25 = PLANE ( 'NONE',  #144 ) ;
#26 = AXIS2_PLACEMENT_3D ( 'NONE', #194, #28, #172 ) ;
#27 = CARTESIAN_POINT ( 'NONE',  ( 0.0000000000000000000, 0.0000000000000000000, 0.0000000000000000000 ) ) ;
#28 = DIRECTION ( 'NONE',  ( 3.491481338843133355E-15, -1.224646799147353207E-16, 1.000000000000000000 ) ) ;
#29 = PERSON_AND_ORGANIZATION ( #67, #134 ) ;
#30 = CC_DESIGN_PERSON_AND_ORGANIZATION_ASSIGNMENT ( #163, #31, ( #108 ) ) ;
#31 = PERSON_AND_ORGANIZATION_ROLE ( 'design_supplier' ) ;
#32 = CIRCLE ( 'NONE', #203, 0.6500000000000000222 ) ;
#33 = AXIS2_PLACEMENT_3D ( 'NONE', #44, #100, #48 ) ;
#34 = CALENDAR_DATE ( 2021, 24, 11 ) ;
#35 = COORDINATED_UNIVERSAL_TIME_OFFSET ( 1, 0, .AHEAD. ) ;
#36 = CLOSED_SHELL ( 'NONE', ( #54, #72, #122 ) ) ;
#37 = EDGE_CURVE ( 'NONE', #193, #193, #118, .T. ) ;
#38 = PLANE ( 'NONE',  #105 ) ;
#39 = EDGE_LOOP ( 'NONE', ( #124 ) ) ;
#40 = APPROVAL ( #131, 'UNSPECIFIED' ) ;
#41 = EDGE_CURVE ( 'NONE', #60, #60, #184, .T. ) ;
#42 = FACE_OUTER_BOUND ( 'NONE', #135, .T. ) ;
#43 = LOCAL_TIME ( 9, 31, 52.00000000000000000, #181 ) ;
#44 = CARTESIAN_POINT ( 'NONE',  ( 1.745740669421566678E-13, -6.123233995736766085E-15, 50.00000000000000000 ) ) ;
#45 = APPLICATION_PROTOCOL_DEFINITION ( 'international standard', 'config_control_design', 1994, #171 ) ;
#46 = CC_DESIGN_PERSON_AND_ORGANIZATION_ASSIGNMENT ( #6, #4, ( #158 ) ) ;
#47 = CARTESIAN_POINT ( 'NONE',  ( 1.759102076282597733E-14, 1.999999999999993117, 5.038268590218094367 ) ) ;
#48 = DIRECTION ( 'NONE',  ( 0.0000000000000000000, 1.000000000000000000, 0.0000000000000000000 ) ) ;
#49 = MECHANICAL_CONTEXT ( 'NONE', #171, 'mechanical' ) ;
#50 = APPROVAL_ROLE ( '' ) ;
#51 = DATE_AND_TIME ( #166, #113 ) ;
#52 = DIRECTION ( 'NONE',  ( -3.491481338843133355E-15, 1.224646799147353207E-16, -1.000000000000000000 ) ) ;
#53 = APPROVAL_PERSON_ORGANIZATION ( #88, #128, #20 ) ;
#54 = ADVANCED_FACE ( 'NONE', ( #186 ), #38, .F. ) ;
#55 = CARTESIAN_POINT ( 'NONE',  ( 1.759102076282597733E-14, -6.170099502255236485E-16, 5.038268590218094367 ) ) ;
#56 = ORIENTED_EDGE ( 'NONE', *, *, #75, .T. ) ;
#57 = AXIS2_PLACEMENT_3D ( 'NONE', #27, #126, #61 ) ;
#58 = FACE_OUTER_BOUND ( 'NONE', #104, .T. ) ;
#59 = PLANE ( 'NONE',  #26 ) ;
#60 = VERTEX_POINT ( 'NONE', #47 ) ;
#61 = DIRECTION ( 'NONE',  ( 4.275831445896958607E-31, 1.000000000000000000, 1.224646799147353207E-16 ) ) ;
#62 = DIRECTION ( 'NONE',  ( -3.491481338843133355E-15, 1.224646799147353207E-16, -1.000000000000000000 ) ) ;
#63 = AXIS2_PLACEMENT_3D ( 'NONE', #55, #52, #106 ) ;
#64 = CONICAL_SURFACE ( 'NONE', #139, 1.599999999999999201, 0.7853981633974512766 ) ;
#65 = PRODUCT_RELATED_PRODUCT_CATEGORY ( 'detail', '', ( #158 ) ) ;
#66 = APPROVAL_DATE_TIME ( #8, #128 ) ;
#67 = PERSON ( 'UNSPECIFIED', 'UNSPECIFIED', 'UNSPECIFIED', ('UNSPECIFIED'), ('UNSPECIFIED'), ('UNSPECIFIED') ) ;
#68 = DIRECTION ( 'NONE',  ( 1.000000000000000000, 0.0000000000000000000, 0.0000000000000000000 ) ) ;
#69 = APPROVAL_DATE_TIME ( #115, #40 ) ;
#70 = APPROVAL_PERSON_ORGANIZATION ( #22, #167, #114 ) ;
#71 = DATE_TIME_ROLE ( 'creation_date' ) ;
#72 = ADVANCED_FACE ( 'NONE', ( #150, #58 ), #151, .T. ) ;
#73 = ORIENTED_EDGE ( 'NONE', *, *, #90, .T. ) ;
#74 = EDGE_LOOP ( 'NONE', ( #187 ) ) ;
#75 = EDGE_CURVE ( 'NONE', #129, #129, #32, .T. ) ;
#76 = CARTESIAN_POINT ( 'NONE',  ( 1.731774744066194397E-13, 1.999999999999993117, 49.60000000000000853 ) ) ;
#77 = UNCERTAINTY_MEASURE_WITH_UNIT (LENGTH_MEASURE( 1.000000000000000082E-05 ), #142, 'distance_accuracy_value', 'NONE');
#78 = CC_DESIGN_DATE_AND_TIME_ASSIGNMENT ( #198, #196, ( #164 ) ) ;
#79 = VERTEX_POINT ( 'NONE', #13 ) ;
#80 = CARTESIAN_POINT ( 'NONE',  ( 1.731774744066194397E-13, -6.074248123770872657E-15, 49.60000000000000853 ) ) ;
#81 = ADVANCED_FACE ( 'NONE', ( #42, #192 ), #64, .T. ) ;
#82 = PERSON_AND_ORGANIZATION_ROLE ( 'creator' ) ;
#83 = MANIFOLD_SOLID_BREP ( 'Corps-Déplacer/Copier1[1]', #168 ) ;
#84 = PERSON_AND_ORGANIZATION ( #67, #134 ) ;
#85 = CALENDAR_DATE ( 2021, 24, 11 ) ;
#86 = DATE_AND_TIME ( #19, #195 ) ;
#87 = ADVANCED_FACE ( 'NONE', ( #175 ), #59, .F. ) ;
#88 = PERSON_AND_ORGANIZATION ( #67, #134 ) ;
#89 = LOCAL_TIME ( 9, 31, 52.00000000000000000, #35 ) ;
#90 = EDGE_CURVE ( 'NONE', #141, #141, #10, .T. ) ;
#91 = EDGE_LOOP ( 'NONE', ( #190 ) ) ;
#92 = ORIENTED_EDGE ( 'NONE', *, *, #117, .T. ) ;
#93 = ORIENTED_EDGE ( 'NONE', *, *, #117, .F. ) ;
#94 = AXIS2_PLACEMENT_3D ( 'NONE', #120, #23, #154 ) ;
#95 = CARTESIAN_POINT ( 'NONE',  ( 1.745740669421566678E-13, 1.199807826129476507E-32, 50.00000000000000000 ) ) ;
#96 = DIRECTION ( 'NONE',  ( 3.491481338843133355E-15, -1.224646799147353207E-16, 1.000000000000000000 ) ) ;
#97 = AXIS2_PLACEMENT_3D ( 'NONE', #18, #5, #68 ) ;
#98 = FACE_OUTER_BOUND ( 'NONE', #91, .T. ) ;
#99 = ADVANCED_FACE ( 'NONE', ( #24 ), #127, .F. ) ;
#100 = DIRECTION ( 'NONE',  ( -3.491481338843133355E-15, 1.224646799147353207E-16, -1.000000000000000000 ) ) ;
#101 = APPROVAL_STATUS ( 'not_yet_approved' ) ;
#102 = COORDINATED_UNIVERSAL_TIME_OFFSET ( 1, 0, .AHEAD. ) ;
#103 = CC_DESIGN_DATE_AND_TIME_ASSIGNMENT ( #86, #71, ( #9 ) ) ;
#104 = EDGE_LOOP ( 'NONE', ( #170 ) ) ;
#105 = AXIS2_PLACEMENT_3D ( 'NONE', #12, #138, #201 ) ;
#106 = DIRECTION ( 'NONE',  ( 0.0000000000000000000, 1.000000000000000000, 0.0000000000000000000 ) ) ;
#107 = DIRECTION ( 'NONE',  ( 3.491481338843133355E-15, -1.224646799147353207E-16, 1.000000000000000000 ) ) ;
#108 = PRODUCT_DEFINITION_FORMATION_WITH_SPECIFIED_SOURCE ( 'ANY', '', #158, .NOT_KNOWN. ) ;
#109 = DIRECTION ( 'NONE',  ( 0.0000000000000000000, 1.000000000000000000, 0.0000000000000000000 ) ) ;
#110 = DIRECTION ( 'NONE',  ( 4.275831445896958607E-31, 1.000000000000000000, 1.224646799147353207E-16 ) ) ;
#111 = COORDINATED_UNIVERSAL_TIME_OFFSET ( 1, 0, .AHEAD. ) ;
#112 = CC_DESIGN_PERSON_AND_ORGANIZATION_ASSIGNMENT ( #149, #183, ( #108 ) ) ;
#113 = LOCAL_TIME ( 9, 31, 52.00000000000000000, #165 ) ;
#114 = APPROVAL_ROLE ( '' ) ;
#115 = DATE_AND_TIME ( #34, #43 ) ;
#116 = APPROVAL_STATUS ( 'not_yet_approved' ) ;
#117 = EDGE_CURVE ( 'NONE', #79, #79, #123, .T. ) ;
#118 = CIRCLE ( 'NONE', #63, 1.999999999999993561 ) ;
#119 = CC_DESIGN_APPROVAL ( #128, ( #108 ) ) ;
#120 = CARTESIAN_POINT ( 'NONE',  ( 1.759102076282597733E-14, -6.170099502255236485E-16, 5.038268590218094367 ) ) ;
#121 = EDGE_LOOP ( 'NONE', ( #92 ) ) ;
#122 = ADVANCED_FACE ( 'NONE', ( #98 ), #25, .T. ) ;
#123 = CIRCLE ( 'NONE', #33, 1.599999999999999201 ) ;
#124 = ORIENTED_EDGE ( 'NONE', *, *, #41, .F. ) ;
#125 = CARTESIAN_POINT ( 'NONE',  ( 1.759102076282597733E-14, 1.999999999999993117, 5.038268590218094367 ) ) ;
#126 = DIRECTION ( 'NONE',  ( -3.491481338843133355E-15, 1.224646799147353207E-16, -1.000000000000000000 ) ) ;
#127 = PLANE ( 'NONE',  #160 ) ;
#128 = APPROVAL ( #101, 'UNSPECIFIED' ) ;
#129 = VERTEX_POINT ( 'NONE', #156 ) ;
#130 = CALENDAR_DATE ( 2021, 24, 11 ) ;
#131 = APPROVAL_STATUS ( 'not_yet_approved' ) ;
#132 = PERSON_AND_ORGANIZATION ( #67, #134 ) ;
#133 = EDGE_LOOP ( 'NONE', ( #73 ) ) ;
#134 = ORGANIZATION ( 'UNSPECIFIED', 'UNSPECIFIED', '' ) ;
#135 = EDGE_LOOP ( 'NONE', ( #189 ) ) ;
#136 = ORIENTED_EDGE ( 'NONE', *, *, #75, .F. ) ;
#137 = EDGE_LOOP ( 'NONE', ( #136 ) ) ;
#138 = DIRECTION ( 'NONE',  ( 3.491481338843133355E-15, -1.224646799147353207E-16, 1.000000000000000000 ) ) ;
#139 = AXIS2_PLACEMENT_3D ( 'NONE', #157, #143, #109 ) ;
#140 = CARTESIAN_POINT ( 'NONE',  ( -4.672026266216184494E-31, 1.638726218811697378E-32, -1.338121505688531765E-16 ) ) ;
#141 = VERTEX_POINT ( 'NONE', #76 ) ;
#142 =( LENGTH_UNIT ( ) NAMED_UNIT ( * ) SI_UNIT ( .MILLI., .METRE. ) );
#143 = DIRECTION ( 'NONE',  ( -3.491481338843133355E-15, 1.224646799147353207E-16, -1.000000000000000000 ) ) ;
#144 = AXIS2_PLACEMENT_3D ( 'NONE', #191, #96, #176 ) ;
#145 = PERSON_AND_ORGANIZATION_ROLE ( 'classification_officer' ) ;
#146 = SECURITY_CLASSIFICATION_LEVEL ( 'unclassified' ) ;
#147 = APPLICATION_PROTOCOL_DEFINITION ( 'international standard', 'config_control_design', 1994, #199 ) ;
#148 = AXIS2_PLACEMENT_3D ( 'NONE', #80, #2, #202 ) ;
#149 = PERSON_AND_ORGANIZATION ( #67, #134 ) ;
#150 = FACE_BOUND ( 'NONE', #137, .T. ) ;
#151 = CONICAL_SURFACE ( 'NONE', #180, 1.999999999999993561, 0.2617993877991428020 ) ;
#152 = CC_DESIGN_SECURITY_CLASSIFICATION ( #164, ( #108 ) ) ;
#153 = MANIFOLD_SOLID_BREP ( 'Corps-Déplacer/Copier1[2]', #36 ) ;
#154 = DIRECTION ( 'NONE',  ( 0.0000000000000000000, 1.000000000000000000, 0.0000000000000000000 ) ) ;
#155 = ADVANCED_FACE ( 'NONE', ( #162, #15 ), #159, .T. ) ;
#156 = CARTESIAN_POINT ( 'NONE',  ( -1.892735826383161794E-31, 0.6500000000000000222, -5.421010862427523403E-17 ) ) ;
#157 = CARTESIAN_POINT ( 'NONE',  ( 1.745740669421566678E-13, -6.123233995736766085E-15, 50.00000000000000000 ) ) ;
#158 = PRODUCT ( '35666', '35666', '', ( #49 ) ) ;
#159 = CYLINDRICAL_SURFACE ( 'NONE', #57, 1.999999999999996669 ) ;
#160 = AXIS2_PLACEMENT_3D ( 'NONE', #95, #62, #14 ) ;
#161 = DIRECTION ( 'NONE',  ( 0.0000000000000000000, -1.000000000000000000, 0.0000000000000000000 ) ) ;
#162 = FACE_OUTER_BOUND ( 'NONE', #39, .T. ) ;
#163 = PERSON_AND_ORGANIZATION ( #67, #134 ) ;
#164 = SECURITY_CLASSIFICATION ( '', '', #146 ) ;
#165 = COORDINATED_UNIVERSAL_TIME_OFFSET ( 1, 0, .AHEAD. ) ;
#166 = CALENDAR_DATE ( 2021, 24, 11 ) ;
#167 = APPROVAL ( #116, 'UNSPECIFIED' ) ;
#168 = CLOSED_SHELL ( 'NONE', ( #87, #155, #81, #99 ) ) ;
#169 = APPROVAL_PERSON_ORGANIZATION ( #132, #40, #50 ) ;
#170 = ORIENTED_EDGE ( 'NONE', *, *, #37, .T. ) ;
#171 = APPLICATION_CONTEXT ( 'configuration controlled 3d designs of mechanical parts and assemblies' ) ;
#172 = DIRECTION ( 'NONE',  ( -4.275831445896958607E-31, -1.000000000000000000, -1.224646799147353207E-16 ) ) ;
#173 =( NAMED_UNIT ( * ) SI_UNIT ( $, .STERADIAN. ) SOLID_ANGLE_UNIT ( ) );
#174 = DESIGN_CONTEXT ( 'detailed design', #199, 'design' ) ;
#175 = FACE_OUTER_BOUND ( 'NONE', #74, .T. ) ;
#176 = DIRECTION ( 'NONE',  ( -4.275831445896958607E-31, -1.000000000000000000, -1.224646799147353207E-16 ) ) ;
#177 = CARTESIAN_POINT ( 'NONE',  ( 1.759102076282597733E-14, -6.170099502255236485E-16, 5.038268590218094367 ) ) ;
#178 = CC_DESIGN_PERSON_AND_ORGANIZATION_ASSIGNMENT ( #29, #82, ( #9 ) ) ;
#179 = SHAPE_DEFINITION_REPRESENTATION ( #197, #182 ) ;
#180 = AXIS2_PLACEMENT_3D ( 'NONE', #177, #107, #161 ) ;
#181 = COORDINATED_UNIVERSAL_TIME_OFFSET ( 1, 0, .AHEAD. ) ;
#182 = ADVANCED_BREP_SHAPE_REPRESENTATION ( '35666', ( #83, #153, #97 ), #185 ) ;
#183 = PERSON_AND_ORGANIZATION_ROLE ( 'creator' ) ;
#184 = CIRCLE ( 'NONE', #94, 1.999999999999993561 ) ;
#185 =( GEOMETRIC_REPRESENTATION_CONTEXT ( 3 ) GLOBAL_UNCERTAINTY_ASSIGNED_CONTEXT ( ( #77 ) ) GLOBAL_UNIT_ASSIGNED_CONTEXT ( ( #142, #1, #173 ) ) REPRESENTATION_CONTEXT ( 'NONE', 'WORKASPACE' ) );
#186 = FACE_OUTER_BOUND ( 'NONE', #200, .T. ) ;
#187 = ORIENTED_EDGE ( 'NONE', *, *, #41, .T. ) ;
#188 = LOCAL_TIME ( 9, 31, 52.00000000000000000, #102 ) ;
#189 = ORIENTED_EDGE ( 'NONE', *, *, #90, .F. ) ;
#190 = ORIENTED_EDGE ( 'NONE', *, *, #37, .F. ) ;
#191 = CARTESIAN_POINT ( 'NONE',  ( 1.759102076282597418E-14, -2.185000700431981098E-15, 5.038268590218093479 ) ) ;
#192 = FACE_BOUND ( 'NONE', #121, .T. ) ;
#193 = VERTEX_POINT ( 'NONE', #125 ) ;
#194 = CARTESIAN_POINT ( 'NONE',  ( 1.759102076282597418E-14, -2.185000700431981098E-15, 5.038268590218093479 ) ) ;
#195 = LOCAL_TIME ( 9, 31, 52.00000000000000000, #111 ) ;
#196 = DATE_TIME_ROLE ( 'classification_date' ) ;
#197 = PRODUCT_DEFINITION_SHAPE ( 'NONE', 'NONE',  #9 ) ;
#198 = DATE_AND_TIME ( #130, #188 ) ;
#199 = APPLICATION_CONTEXT ( 'configuration controlled 3d designs of mechanical parts and assemblies' ) ;
#200 = EDGE_LOOP ( 'NONE', ( #56 ) ) ;
#201 = DIRECTION ( 'NONE',  ( -4.275831445896958607E-31, -1.000000000000000000, -1.224646799147353207E-16 ) ) ;
#202 = DIRECTION ( 'NONE',  ( 0.0000000000000000000, 1.000000000000000000, 0.0000000000000000000 ) ) ;
#203 = AXIS2_PLACEMENT_3D ( 'NONE', #140, #16, #110 ) ;
ENDSEC;
END-ISO-10303-21;
