ISO-10303-21;
HEADER;
FILE_DESCRIPTION (( 'STEP AP203' ),
    '1' );
FILE_NAME ('35665.step',
    '2021-10-06T11:26:13',
    ( '' ),
    ( '' ),
    'SwSTEP 2.0',
    'SolidWorks 2019',
    '' );
FILE_SCHEMA (( 'CONFIG_CONTROL_DESIGN' ));
ENDSEC;

DATA;
#1 = DIRECTION ( 'NONE',  ( -3.491481338843133355E-15, 1.224646799147353207E-16, -1.000000000000000000 ) ) ;
#2 = UNCERTAINTY_MEASURE_WITH_UNIT (LENGTH_MEASURE( 1.000000000000000082E-05 ), #187, 'distance_accuracy_value', 'NONE');
#3 = CALENDAR_DATE ( 2021, 6, 10 ) ;
#4 = MANIFOLD_SOLID_BREP ( 'Corps-Déplacer/Copier1[2]', #162 ) ;
#5 = APPROVAL_ROLE ( '' ) ;
#6 = PERSON_AND_ORGANIZATION ( #56, #20 ) ;
#7 = DIRECTION ( 'NONE',  ( -3.491481338843133355E-15, 1.224646799147353207E-16, -1.000000000000000000 ) ) ;
#8 = APPROVAL ( #38, 'UNSPECIFIED' ) ;
#9 = CC_DESIGN_APPROVAL ( #102, ( #45 ) ) ;
#10 = PRODUCT ( '35665', '35665', '', ( #18 ) ) ;
#11 = ORIENTED_EDGE ( 'NONE', *, *, #41, .T. ) ;
#12 = CARTESIAN_POINT ( 'NONE',  ( 6.284666409917640040E-14, -2.204364238465235428E-15, 18.00000000000000000 ) ) ;
#13 = DIRECTION ( 'NONE',  ( 4.668921077302404411E-31, 1.000000000000000000, 1.314184451497585203E-16 ) ) ;
#14 = FACE_OUTER_BOUND ( 'NONE', #91, .T. ) ;
#15 = VERTEX_POINT ( 'NONE', #49 ) ;
#16 = FACE_BOUND ( 'NONE', #27, .T. ) ;
#17 = AXIS2_PLACEMENT_3D ( 'NONE', #113, #97, #159 ) ;
#18 = MECHANICAL_CONTEXT ( 'NONE', #33, 'mechanical' ) ;
#19 = APPLICATION_PROTOCOL_DEFINITION ( 'international standard', 'config_control_design', 1994, #107 ) ;
#20 = ORGANIZATION ( 'UNSPECIFIED', 'UNSPECIFIED', '' ) ;
#21 = PERSON_AND_ORGANIZATION ( #56, #20 ) ;
#22 = APPROVAL ( #161, 'UNSPECIFIED' ) ;
#23 = PERSON_AND_ORGANIZATION ( #56, #20 ) ;
#24 = AXIS2_PLACEMENT_3D ( 'NONE', #119, #179, #105 ) ;
#25 = ORIENTED_EDGE ( 'NONE', *, *, #41, .F. ) ;
#26 = DIRECTION ( 'NONE',  ( -3.491481338843133355E-15, 1.224646799147353207E-16, -1.000000000000000000 ) ) ;
#27 = EDGE_LOOP ( 'NONE', ( #59 ) ) ;
#28 = LOCAL_TIME ( 13, 26, 13.00000000000000000, #117 ) ;
#29 = VERTEX_POINT ( 'NONE', #62 ) ;
#30 = DIRECTION ( 'NONE',  ( 0.0000000000000000000, 1.000000000000000000, 0.0000000000000000000 ) ) ;
#31 = DIRECTION ( 'NONE',  ( -4.275831445896958607E-31, -1.000000000000000000, -1.224646799147353207E-16 ) ) ;
#32 = DIRECTION ( 'NONE',  ( -3.491481338843133355E-15, 1.224646799147353207E-16, -1.000000000000000000 ) ) ;
#33 = APPLICATION_CONTEXT ( 'configuration controlled 3d designs of mechanical parts and assemblies' ) ;
#34 = PERSON_AND_ORGANIZATION_ROLE ( 'creator' ) ;
#35 = CC_DESIGN_PERSON_AND_ORGANIZATION_ASSIGNMENT ( #191, #34, ( #45 ) ) ;
#36 = COORDINATED_UNIVERSAL_TIME_OFFSET ( 1, 0, .AHEAD. ) ;
#37 = CIRCLE ( 'NONE', #57, 1.649999999999994804 ) ;
#38 = APPROVAL_STATUS ( 'not_yet_approved' ) ;
#39 = APPROVAL_DATE_TIME ( #118, #22 ) ;
#40 = CC_DESIGN_APPROVAL ( #22, ( #174 ) ) ;
#41 = EDGE_CURVE ( 'NONE', #29, #29, #83, .T. ) ;
#42 = ORIENTED_EDGE ( 'NONE', *, *, #99, .T. ) ;
#43 = CARTESIAN_POINT ( 'NONE',  ( 2.686372402902931087E-15, -9.422525986127478687E-17, 0.7694076359557554534 ) ) ;
#44 = EDGE_LOOP ( 'NONE', ( #185 ) ) ;
#45 = PRODUCT_DEFINITION_FORMATION_WITH_SPECIFIED_SOURCE ( 'ANY', '', #10, .NOT_KNOWN. ) ;
#46 =( NAMED_UNIT ( * ) PLANE_ANGLE_UNIT ( ) SI_UNIT ( $, .RADIAN. ) );
#47 = CARTESIAN_POINT ( 'NONE',  ( 0.0000000000000000000, 0.0000000000000000000, 0.0000000000000000000 ) ) ;
#48 = CARTESIAN_POINT ( 'NONE',  ( 1.710825856033135470E-13, -6.000769315822030937E-15, 49.00000000000000000 ) ) ;
#49 = CARTESIAN_POINT ( 'NONE',  ( 2.686372402902931876E-15, 1.649999999999994804, 0.7694076359557556755 ) ) ;
#50 = CC_DESIGN_PERSON_AND_ORGANIZATION_ASSIGNMENT ( #23, #163, ( #10 ) ) ;
#51 = LOCAL_TIME ( 13, 26, 13.00000000000000000, #67 ) ;
#52 = COORDINATED_UNIVERSAL_TIME_OFFSET ( 1, 0, .AHEAD. ) ;
#53 = PERSON_AND_ORGANIZATION ( #56, #20 ) ;
#54 = DESIGN_CONTEXT ( 'detailed design', #107, 'design' ) ;
#55 = FACE_OUTER_BOUND ( 'NONE', #88, .T. ) ;
#56 = PERSON ( 'UNSPECIFIED', 'UNSPECIFIED', 'UNSPECIFIED', ('UNSPECIFIED'), ('UNSPECIFIED'), ('UNSPECIFIED') ) ;
#57 = AXIS2_PLACEMENT_3D ( 'NONE', #181, #32, #13 ) ;
#58 = DIRECTION ( 'NONE',  ( 0.0000000000000000000, 1.000000000000000000, 0.0000000000000000000 ) ) ;
#59 = ORIENTED_EDGE ( 'NONE', *, *, #139, .T. ) ;
#60 = EDGE_LOOP ( 'NONE', ( #42 ) ) ;
#61 = CIRCLE ( 'NONE', #125, 1.650000000000000577 ) ;
#62 = CARTESIAN_POINT ( 'NONE',  ( 6.284666409917640040E-14, 1.649999999999994804, 18.00000000000000000 ) ) ;
#63 = FACE_OUTER_BOUND ( 'NONE', #138, .T. ) ;
#64 = FACE_OUTER_BOUND ( 'NONE', #166, .T. ) ;
#65 = DATE_AND_TIME ( #160, #51 ) ;
#66 = AXIS2_PLACEMENT_3D ( 'NONE', #152, #7, #135 ) ;
#67 = COORDINATED_UNIVERSAL_TIME_OFFSET ( 1, 0, .AHEAD. ) ;
#68 = PERSON_AND_ORGANIZATION ( #56, #20 ) ;
#69 = APPROVAL_ROLE ( '' ) ;
#70 = PERSON_AND_ORGANIZATION_ROLE ( 'design_supplier' ) ;
#71 = ADVANCED_FACE ( 'NONE', ( #140 ), #182, .F. ) ;
#72 = ORIENTED_EDGE ( 'NONE', *, *, #139, .F. ) ;
#73 = ORIENTED_EDGE ( 'NONE', *, *, #86, .T. ) ;
#74 = CLOSED_SHELL ( 'NONE', ( #71, #167, #123, #93 ) ) ;
#75 = DIRECTION ( 'NONE',  ( 0.0000000000000000000, 1.000000000000000000, 0.0000000000000000000 ) ) ;
#76 = CARTESIAN_POINT ( 'NONE',  ( 1.710825856033135470E-13, -6.000769315822030937E-15, 49.00000000000000000 ) ) ;
#77 = LOCAL_TIME ( 13, 26, 13.00000000000000000, #52 ) ;
#78 = ADVANCED_FACE ( 'NONE', ( #197 ), #169, .T. ) ;
#79 = DIRECTION ( 'NONE',  ( 0.0000000000000000000, 1.000000000000000000, 0.0000000000000000000 ) ) ;
#80 = CONICAL_SURFACE ( 'NONE', #203, 1.250000000000000888, 0.7853981633974510546 ) ;
#81 = DIRECTION ( 'NONE',  ( -3.491481338843133355E-15, 1.224646799147353207E-16, -1.000000000000000000 ) ) ;
#82 = DATE_AND_TIME ( #3, #133 ) ;
#83 = CIRCLE ( 'NONE', #184, 1.649999999999997025 ) ;
#84 = CC_DESIGN_DATE_AND_TIME_ASSIGNMENT ( #175, #147, ( #174 ) ) ;
#85 = DATE_TIME_ROLE ( 'creation_date' ) ;
#86 = EDGE_CURVE ( 'NONE', #124, #124, #115, .T. ) ;
#87 = EDGE_LOOP ( 'NONE', ( #121 ) ) ;
#88 = EDGE_LOOP ( 'NONE', ( #72 ) ) ;
#89 = DIRECTION ( 'NONE',  ( -4.275831445896958607E-31, -1.000000000000000000, -1.224646799147353207E-16 ) ) ;
#90 = AXIS2_PLACEMENT_3D ( 'NONE', #94, #170, #201 ) ;
#91 = EDGE_LOOP ( 'NONE', ( #73 ) ) ;
#92 = FACE_OUTER_BOUND ( 'NONE', #199, .T. ) ;
#93 = ADVANCED_FACE ( 'NONE', ( #55 ), #198, .F. ) ;
#94 = CARTESIAN_POINT ( 'NONE',  ( 0.0000000000000000000, 0.0000000000000000000, 0.0000000000000000000 ) ) ;
#95 = PLANE ( 'NONE',  #171 ) ;
#96 = CC_DESIGN_PERSON_AND_ORGANIZATION_ASSIGNMENT ( #6, #98, ( #174 ) ) ;
#97 = DIRECTION ( 'NONE',  ( 0.0000000000000000000, 0.0000000000000000000, 1.000000000000000000 ) ) ;
#98 = PERSON_AND_ORGANIZATION_ROLE ( 'classification_officer' ) ;
#99 = EDGE_CURVE ( 'NONE', #157, #157, #61, .T. ) ;
#100 = APPROVAL_DATE_TIME ( #190, #102 ) ;
#101 = SHAPE_DEFINITION_REPRESENTATION ( #129, #111 ) ;
#102 = APPROVAL ( #130, 'UNSPECIFIED' ) ;
#103 = DIRECTION ( 'NONE',  ( 3.491481338843133355E-15, -1.224646799147353207E-16, 1.000000000000000000 ) ) ;
#104 = LOCAL_TIME ( 13, 26, 13.00000000000000000, #132 ) ;
#105 = DIRECTION ( 'NONE',  ( 4.275831445896958607E-31, 1.000000000000000000, 1.224646799147353207E-16 ) ) ;
#106 = CC_DESIGN_DATE_AND_TIME_ASSIGNMENT ( #65, #85, ( #192 ) ) ;
#107 = APPLICATION_CONTEXT ( 'configuration controlled 3d designs of mechanical parts and assemblies' ) ;
#108 = EDGE_CURVE ( 'NONE', #15, #15, #37, .T. ) ;
#109 = DIRECTION ( 'NONE',  ( 3.491481338843133355E-15, -1.224646799147353207E-16, 1.000000000000000000 ) ) ;
#110 = CARTESIAN_POINT ( 'NONE',  ( 1.696859930677762937E-13, 1.649999999999994804, 48.60000000000000142 ) ) ;
#111 = ADVANCED_BREP_SHAPE_REPRESENTATION ( '35665', ( #136, #4, #17 ), #122 ) ;
#112 = FACE_OUTER_BOUND ( 'NONE', #87, .T. ) ;
#113 = CARTESIAN_POINT ( 'NONE',  ( 0.0000000000000000000, 0.0000000000000000000, 0.0000000000000000000 ) ) ;
#114 = PERSON_AND_ORGANIZATION ( #56, #20 ) ;
#115 = CIRCLE ( 'NONE', #66, 1.649999999999997025 ) ;
#116 = PERSON_AND_ORGANIZATION ( #56, #20 ) ;
#117 = COORDINATED_UNIVERSAL_TIME_OFFSET ( 1, 0, .AHEAD. ) ;
#118 = DATE_AND_TIME ( #194, #104 ) ;
#119 = CARTESIAN_POINT ( 'NONE',  ( 1.710825856033135470E-13, 9.373498641636526573E-33, 49.00000000000000000 ) ) ;
#120 = ORIENTED_EDGE ( 'NONE', *, *, #86, .F. ) ;
#121 = ORIENTED_EDGE ( 'NONE', *, *, #108, .F. ) ;
#122 =( GEOMETRIC_REPRESENTATION_CONTEXT ( 3 ) GLOBAL_UNCERTAINTY_ASSIGNED_CONTEXT ( ( #2 ) ) GLOBAL_UNIT_ASSIGNED_CONTEXT ( ( #187, #46, #186 ) ) REPRESENTATION_CONTEXT ( 'NONE', 'WORKASPACE' ) );
#123 = ADVANCED_FACE ( 'NONE', ( #63, #16 ), #80, .T. ) ;
#124 = VERTEX_POINT ( 'NONE', #143 ) ;
#125 = AXIS2_PLACEMENT_3D ( 'NONE', #165, #26, #58 ) ;
#126 = DIRECTION ( 'NONE',  ( 4.275831445896958607E-31, 1.000000000000000000, 1.224646799147353207E-16 ) ) ;
#127 = CYLINDRICAL_SURFACE ( 'NONE', #178, 1.649999999999998579 ) ;
#128 = CALENDAR_DATE ( 2021, 6, 10 ) ;
#129 = PRODUCT_DEFINITION_SHAPE ( 'NONE', 'NONE',  #192 ) ;
#130 = APPROVAL_STATUS ( 'not_yet_approved' ) ;
#131 = CC_DESIGN_PERSON_AND_ORGANIZATION_ASSIGNMENT ( #116, #193, ( #192 ) ) ;
#132 = COORDINATED_UNIVERSAL_TIME_OFFSET ( 1, 0, .AHEAD. ) ;
#133 = LOCAL_TIME ( 13, 26, 13.00000000000000000, #36 ) ;
#134 = CARTESIAN_POINT ( 'NONE',  ( 6.284666409917640040E-14, 1.237301820696027053E-32, 18.00000000000000000 ) ) ;
#135 = DIRECTION ( 'NONE',  ( 0.0000000000000000000, 1.000000000000000000, 0.0000000000000000000 ) ) ;
#136 = MANIFOLD_SOLID_BREP ( 'Corps-Déplacer/Copier1[1]', #74 ) ;
#137 = APPROVAL_PERSON_ORGANIZATION ( #68, #8, #5 ) ;
#138 = EDGE_LOOP ( 'NONE', ( #183 ) ) ;
#139 = EDGE_CURVE ( 'NONE', #156, #156, #188, .T. ) ;
#140 = FACE_OUTER_BOUND ( 'NONE', #153, .T. ) ;
#141 = AXIS2_PLACEMENT_3D ( 'NONE', #43, #103, #164 ) ;
#142 = CARTESIAN_POINT ( 'NONE',  ( 6.284666409917640040E-14, 1.237301820696027053E-32, 18.00000000000000000 ) ) ;
#143 = CARTESIAN_POINT ( 'NONE',  ( 6.284666409917640040E-14, 1.649999999999994804, 18.00000000000000000 ) ) ;
#144 = CARTESIAN_POINT ( 'NONE',  ( 1.710825856033135470E-13, 1.249999999999994893, 49.00000000000000000 ) ) ;
#145 = FACE_OUTER_BOUND ( 'NONE', #60, .T. ) ;
#146 = APPROVAL_DATE_TIME ( #82, #8 ) ;
#147 = DATE_TIME_ROLE ( 'classification_date' ) ;
#148 = AXIS2_PLACEMENT_3D ( 'NONE', #134, #200, #89 ) ;
#149 = SECURITY_CLASSIFICATION_LEVEL ( 'unclassified' ) ;
#150 = CALENDAR_DATE ( 2021, 6, 10 ) ;
#151 = APPROVAL_PERSON_ORGANIZATION ( #114, #102, #176 ) ;
#152 = CARTESIAN_POINT ( 'NONE',  ( 6.284666409917640040E-14, -2.204364238465235428E-15, 18.00000000000000000 ) ) ;
#153 = EDGE_LOOP ( 'NONE', ( #11 ) ) ;
#154 = DIRECTION ( 'NONE',  ( -3.491481338843133355E-15, 1.224646799147353207E-16, -1.000000000000000000 ) ) ;
#155 = CC_DESIGN_SECURITY_CLASSIFICATION ( #174, ( #45 ) ) ;
#156 = VERTEX_POINT ( 'NONE', #144 ) ;
#157 = VERTEX_POINT ( 'NONE', #110 ) ;
#158 = CYLINDRICAL_SURFACE ( 'NONE', #90, 1.649999999999995914 ) ;
#159 = DIRECTION ( 'NONE',  ( 1.000000000000000000, 0.0000000000000000000, 0.0000000000000000000 ) ) ;
#160 = CALENDAR_DATE ( 2021, 6, 10 ) ;
#161 = APPROVAL_STATUS ( 'not_yet_approved' ) ;
#162 = CLOSED_SHELL ( 'NONE', ( #78, #202, #173 ) ) ;
#163 = PERSON_AND_ORGANIZATION_ROLE ( 'design_owner' ) ;
#164 = DIRECTION ( 'NONE',  ( -4.668921077302404411E-31, -1.000000000000000000, -1.314184451497585203E-16 ) ) ;
#165 = CARTESIAN_POINT ( 'NONE',  ( 1.696859930677762937E-13, -5.951783443856137509E-15, 48.60000000000000142 ) ) ;
#166 = EDGE_LOOP ( 'NONE', ( #120 ) ) ;
#167 = ADVANCED_FACE ( 'NONE', ( #92, #145 ), #127, .T. ) ;
#168 = DIRECTION ( 'NONE',  ( -3.491481338843133355E-15, 1.224646799147353207E-16, -1.000000000000000000 ) ) ;
#169 = CONICAL_SURFACE ( 'NONE', #141, 1.649999999999994804, 1.134464013796309123 ) ;
#170 = DIRECTION ( 'NONE',  ( -3.491481338843133355E-15, 1.224646799147353207E-16, -1.000000000000000000 ) ) ;
#171 = AXIS2_PLACEMENT_3D ( 'NONE', #142, #109, #31 ) ;
#172 = APPLICATION_PROTOCOL_DEFINITION ( 'international standard', 'config_control_design', 1994, #33 ) ;
#173 = ADVANCED_FACE ( 'NONE', ( #64 ), #95, .T. ) ;
#174 = SECURITY_CLASSIFICATION ( '', '', #149 ) ;
#175 = DATE_AND_TIME ( #150, #77 ) ;
#176 = APPROVAL_ROLE ( '' ) ;
#177 = PRODUCT_RELATED_PRODUCT_CATEGORY ( 'detail', '', ( #10 ) ) ;
#178 = AXIS2_PLACEMENT_3D ( 'NONE', #47, #1, #126 ) ;
#179 = DIRECTION ( 'NONE',  ( -3.491481338843133355E-15, 1.224646799147353207E-16, -1.000000000000000000 ) ) ;
#180 = CC_DESIGN_APPROVAL ( #8, ( #192 ) ) ;
#181 = CARTESIAN_POINT ( 'NONE',  ( 2.686372402902931087E-15, -9.422525986127478687E-17, 0.7694076359557554534 ) ) ;
#182 = PLANE ( 'NONE',  #148 ) ;
#183 = ORIENTED_EDGE ( 'NONE', *, *, #99, .F. ) ;
#184 = AXIS2_PLACEMENT_3D ( 'NONE', #12, #168, #75 ) ;
#185 = ORIENTED_EDGE ( 'NONE', *, *, #108, .T. ) ;
#186 =( NAMED_UNIT ( * ) SI_UNIT ( $, .STERADIAN. ) SOLID_ANGLE_UNIT ( ) );
#187 =( LENGTH_UNIT ( ) NAMED_UNIT ( * ) SI_UNIT ( .MILLI., .METRE. ) );
#188 = CIRCLE ( 'NONE', #195, 1.250000000000000888 ) ;
#189 = APPROVAL_PERSON_ORGANIZATION ( #53, #22, #69 ) ;
#190 = DATE_AND_TIME ( #128, #28 ) ;
#191 = PERSON_AND_ORGANIZATION ( #56, #20 ) ;
#192 = PRODUCT_DEFINITION ( 'UNKNOWN', '', #45, #54 ) ;
#193 = PERSON_AND_ORGANIZATION_ROLE ( 'creator' ) ;
#194 = CALENDAR_DATE ( 2021, 6, 10 ) ;
#195 = AXIS2_PLACEMENT_3D ( 'NONE', #48, #154, #30 ) ;
#196 = CC_DESIGN_PERSON_AND_ORGANIZATION_ASSIGNMENT ( #21, #70, ( #45 ) ) ;
#197 = FACE_OUTER_BOUND ( 'NONE', #44, .T. ) ;
#198 = PLANE ( 'NONE',  #24 ) ;
#199 = EDGE_LOOP ( 'NONE', ( #25 ) ) ;
#200 = DIRECTION ( 'NONE',  ( 3.491481338843133355E-15, -1.224646799147353207E-16, 1.000000000000000000 ) ) ;
#201 = DIRECTION ( 'NONE',  ( 4.275831445896958607E-31, 1.000000000000000000, 1.224646799147353207E-16 ) ) ;
#202 = ADVANCED_FACE ( 'NONE', ( #112, #14 ), #158, .T. ) ;
#203 = AXIS2_PLACEMENT_3D ( 'NONE', #76, #81, #79 ) ;
ENDSEC;
END-ISO-10303-21;
