ISO-10303-21;
HEADER;
FILE_DESCRIPTION (( 'STEP AP203' ),
    '1' );
FILE_NAME ('35636.step',
    '2021-12-06T12:59:14',
    ( '' ),
    ( '' ),
    'SwSTEP 2.0',
    'SolidWorks 2019',
    '' );
FILE_SCHEMA (( 'CONFIG_CONTROL_DESIGN' ));
ENDSEC;

DATA;
#1 = EDGE_CURVE ( 'NONE', #96, #96, #134, .T. ) ;
#2 = COORDINATED_UNIVERSAL_TIME_OFFSET ( 1, 0, .AHEAD. ) ;
#3 = CIRCLE ( 'NONE', #139, 25.00000000000000000 ) ;
#4 = CYLINDRICAL_SURFACE ( 'NONE', #22, 25.00000000000000000 ) ;
#5 = CARTESIAN_POINT ( 'NONE',  ( 0.0000000000000000000, 0.0000000000000000000, 0.0000000000000000000 ) ) ;
#6 = EDGE_CURVE ( 'NONE', #71, #71, #41, .T. ) ;
#7 = CLOSED_SHELL ( 'NONE', ( #80, #161, #125, #138 ) ) ;
#8 = VERTEX_POINT ( 'NONE', #33 ) ;
#9 = CALENDAR_DATE ( 2021, 6, 12 ) ;
#10 = CARTESIAN_POINT ( 'NONE',  ( 1.047444401652940007E-14, 6.499999999999999112, 3.000000000000000000 ) ) ;
#11 = PLANE ( 'NONE',  #153 ) ;
#12 = CARTESIAN_POINT ( 'NONE',  ( 1.047444401652939849E-14, -3.673940397442058882E-17, 2.999999999999999556 ) ) ;
#13 = PRODUCT_DEFINITION ( 'UNKNOWN', '', #162, #130 ) ;
#14 = EDGE_LOOP ( 'NONE', ( #115 ) ) ;
#15 = DATE_TIME_ROLE ( 'creation_date' ) ;
#16 = PERSON_AND_ORGANIZATION_ROLE ( 'creator' ) ;
#17 = CC_DESIGN_APPROVAL ( #92, ( #13 ) ) ;
#18 = CALENDAR_DATE ( 2021, 6, 12 ) ;
#19 = DIRECTION ( 'NONE',  ( 1.000000000000000000, 0.0000000000000000000, 0.0000000000000000000 ) ) ;
#20 = APPROVAL_PERSON_ORGANIZATION ( #60, #76, #37 ) ;
#21 = PERSON_AND_ORGANIZATION ( #55, #66 ) ;
#22 = AXIS2_PLACEMENT_3D ( 'NONE', #84, #157, #143 ) ;
#23 = APPROVAL_PERSON_ORGANIZATION ( #145, #31, #69 ) ;
#24 = FACE_OUTER_BOUND ( 'NONE', #93, .T. ) ;
#25 = DIRECTION ( 'NONE',  ( -3.491481338843133355E-15, 1.224646799147352961E-17, -1.000000000000000000 ) ) ;
#26 = MANIFOLD_SOLID_BREP ( 'Corps-Déplacer/Copier1', #7 ) ;
#27 = EDGE_LOOP ( 'NONE', ( #105 ) ) ;
#28 = DIRECTION ( 'NONE',  ( -3.491481338843133355E-15, 1.224646799147352961E-17, -1.000000000000000000 ) ) ;
#29 = PERSON_AND_ORGANIZATION_ROLE ( 'creator' ) ;
#30 = PERSON_AND_ORGANIZATION ( #55, #66 ) ;
#31 = APPROVAL ( #86, 'UNSPECIFIED' ) ;
#32 = UNCERTAINTY_MEASURE_WITH_UNIT (LENGTH_MEASURE( 1.000000000000000082E-05 ), #73, 'distance_accuracy_value', 'NONE');
#33 = CARTESIAN_POINT ( 'NONE',  ( 0.0000000000000000000, 25.00000000000000000, 0.0000000000000000000 ) ) ;
#34 = PERSON_AND_ORGANIZATION ( #55, #66 ) ;
#35 = APPLICATION_PROTOCOL_DEFINITION ( 'international standard', 'config_control_design', 1994, #110 ) ;
#36 = AXIS2_PLACEMENT_3D ( 'NONE', #12, #127, #53 ) ;
#37 = APPROVAL_ROLE ( '' ) ;
#38 = CC_DESIGN_PERSON_AND_ORGANIZATION_ASSIGNMENT ( #30, #16, ( #13 ) ) ;
#39 = CYLINDRICAL_SURFACE ( 'NONE', #142, 6.500000000000000000 ) ;
#40 = EDGE_CURVE ( 'NONE', #159, #159, #133, .T. ) ;
#41 = CIRCLE ( 'NONE', #149, 6.500000000000000888 ) ;
#42 = ORIENTED_EDGE ( 'NONE', *, *, #88, .T. ) ;
#43 = LOCAL_TIME ( 13, 59, 14.00000000000000000, #47 ) ;
#44 = DATE_AND_TIME ( #141, #98 ) ;
#45 = FACE_OUTER_BOUND ( 'NONE', #48, .T. ) ;
#46 = PERSON_AND_ORGANIZATION_ROLE ( 'design_owner' ) ;
#47 = COORDINATED_UNIVERSAL_TIME_OFFSET ( 1, 0, .AHEAD. ) ;
#48 = EDGE_LOOP ( 'NONE', ( #167 ) ) ;
#49 = APPROVAL_STATUS ( 'not_yet_approved' ) ;
#50 = DIRECTION ( 'NONE',  ( -4.275831445896957621E-32, -1.000000000000000000, -1.224646799147352961E-17 ) ) ;
#51 = CC_DESIGN_PERSON_AND_ORGANIZATION_ASSIGNMENT ( #21, #64, ( #58 ) ) ;
#52 = APPLICATION_CONTEXT ( 'configuration controlled 3d designs of mechanical parts and assemblies' ) ;
#53 = DIRECTION ( 'NONE',  ( 6.162975822039154730E-32, 1.000000000000000000, 1.734723475976807094E-17 ) ) ;
#54 = CALENDAR_DATE ( 2021, 6, 12 ) ;
#55 = PERSON ( 'UNSPECIFIED', 'UNSPECIFIED', 'UNSPECIFIED', ('UNSPECIFIED'), ('UNSPECIFIED'), ('UNSPECIFIED') ) ;
#56 = CARTESIAN_POINT ( 'NONE',  ( 1.047444401652940007E-14, 6.499999999999999112, 3.000000000000000000 ) ) ;
#57 = CC_DESIGN_PERSON_AND_ORGANIZATION_ASSIGNMENT ( #95, #29, ( #162 ) ) ;
#58 = SECURITY_CLASSIFICATION ( '', '', #103 ) ;
#59 = DIRECTION ( 'NONE',  ( 0.0000000000000000000, 0.0000000000000000000, 1.000000000000000000 ) ) ;
#60 = PERSON_AND_ORGANIZATION ( #55, #66 ) ;
#61 = AXIS2_PLACEMENT_3D ( 'NONE', #10, #63, #50 ) ;
#62 = CARTESIAN_POINT ( 'NONE',  ( -1.068957861474239389E-30, 3.749399456654642651E-33, -3.061616997868382648E-16 ) ) ;
#63 = DIRECTION ( 'NONE',  ( 3.491481338843133355E-15, -1.224646799147352961E-17, 1.000000000000000000 ) ) ;
#64 = PERSON_AND_ORGANIZATION_ROLE ( 'classification_officer' ) ;
#65 = DIRECTION ( 'NONE',  ( 4.275831445896957621E-32, 1.000000000000000000, 1.224646799147352961E-17 ) ) ;
#66 = ORGANIZATION ( 'UNSPECIFIED', 'UNSPECIFIED', '' ) ;
#67 = DIRECTION ( 'NONE',  ( 0.0000000000000000000, 1.000000000000000000, 0.0000000000000000000 ) ) ;
#68 = ORIENTED_EDGE ( 'NONE', *, *, #40, .F. ) ;
#69 = APPROVAL_ROLE ( '' ) ;
#70 = CARTESIAN_POINT ( 'NONE',  ( 0.0000000000000000000, 6.500000000000000888, 0.0000000000000000000 ) ) ;
#71 = VERTEX_POINT ( 'NONE', #70 ) ;
#72 = MECHANICAL_CONTEXT ( 'NONE', #52, 'mechanical' ) ;
#73 =( LENGTH_UNIT ( ) NAMED_UNIT ( * ) SI_UNIT ( .MILLI., .METRE. ) );
#74 = CC_DESIGN_SECURITY_CLASSIFICATION ( #58, ( #162 ) ) ;
#75 = COORDINATED_UNIVERSAL_TIME_OFFSET ( 1, 0, .AHEAD. ) ;
#76 = APPROVAL ( #49, 'UNSPECIFIED' ) ;
#77 = DIRECTION ( 'NONE',  ( -3.491481338843133355E-15, 1.224646799147352961E-17, -1.000000000000000000 ) ) ;
#78 = ADVANCED_BREP_SHAPE_REPRESENTATION ( '35636', ( #26, #90 ), #89 ) ;
#79 = CARTESIAN_POINT ( 'NONE',  ( 1.047444401652940007E-14, -3.673940397442058882E-17, 3.000000000000000000 ) ) ;
#80 = ADVANCED_FACE ( 'NONE', ( #107, #151 ), #11, .T. ) ;
#81 = PRODUCT_DEFINITION_SHAPE ( 'NONE', 'NONE',  #13 ) ;
#82 = CARTESIAN_POINT ( 'NONE',  ( -2.779290439833022919E-31, 9.748438587302072056E-34, -7.960204194457795477E-17 ) ) ;
#83 = FACE_OUTER_BOUND ( 'NONE', #14, .T. ) ;
#84 = CARTESIAN_POINT ( 'NONE',  ( 0.0000000000000000000, 0.0000000000000000000, 0.0000000000000000000 ) ) ;
#85 = APPROVAL_ROLE ( '' ) ;
#86 = APPROVAL_STATUS ( 'not_yet_approved' ) ;
#87 = FACE_BOUND ( 'NONE', #27, .T. ) ;
#88 = EDGE_CURVE ( 'NONE', #8, #8, #3, .T. ) ;
#89 =( GEOMETRIC_REPRESENTATION_CONTEXT ( 3 ) GLOBAL_UNCERTAINTY_ASSIGNED_CONTEXT ( ( #32 ) ) GLOBAL_UNIT_ASSIGNED_CONTEXT ( ( #73, #131, #118 ) ) REPRESENTATION_CONTEXT ( 'NONE', 'WORKASPACE' ) );
#90 = AXIS2_PLACEMENT_3D ( 'NONE', #5, #59, #19 ) ;
#91 = LOCAL_TIME ( 13, 59, 14.00000000000000000, #164 ) ;
#92 = APPROVAL ( #144, 'UNSPECIFIED' ) ;
#93 = EDGE_LOOP ( 'NONE', ( #68 ) ) ;
#94 = CARTESIAN_POINT ( 'NONE',  ( -3.955144087454685266E-31, 6.500000000000000888, -1.132798289211301304E-16 ) ) ;
#95 = PERSON_AND_ORGANIZATION ( #55, #66 ) ;
#96 = VERTEX_POINT ( 'NONE', #56 ) ;
#97 = AXIS2_PLACEMENT_3D ( 'NONE', #79, #126, #67 ) ;
#98 = LOCAL_TIME ( 13, 59, 14.00000000000000000, #128 ) ;
#99 = DATE_AND_TIME ( #18, #43 ) ;
#100 = DIRECTION ( 'NONE',  ( 4.275831445896957621E-32, 1.000000000000000000, 1.224646799147352961E-17 ) ) ;
#101 = DATE_AND_TIME ( #146, #154 ) ;
#102 = FACE_OUTER_BOUND ( 'NONE', #104, .T. ) ;
#103 = SECURITY_CLASSIFICATION_LEVEL ( 'unclassified' ) ;
#104 = EDGE_LOOP ( 'NONE', ( #166 ) ) ;
#105 = ORIENTED_EDGE ( 'NONE', *, *, #1, .T. ) ;
#106 = CC_DESIGN_PERSON_AND_ORGANIZATION_ASSIGNMENT ( #140, #122, ( #162 ) ) ;
#107 = FACE_OUTER_BOUND ( 'NONE', #114, .T. ) ;
#108 = DATE_AND_TIME ( #54, #168 ) ;
#109 = PRODUCT_RELATED_PRODUCT_CATEGORY ( 'detail', '', ( #152 ) ) ;
#110 = APPLICATION_CONTEXT ( 'configuration controlled 3d designs of mechanical parts and assemblies' ) ;
#111 = APPLICATION_PROTOCOL_DEFINITION ( 'international standard', 'config_control_design', 1994, #52 ) ;
#112 = APPROVAL_DATE_TIME ( #101, #76 ) ;
#113 = EDGE_LOOP ( 'NONE', ( #163 ) ) ;
#114 = EDGE_LOOP ( 'NONE', ( #42 ) ) ;
#115 = ORIENTED_EDGE ( 'NONE', *, *, #40, .T. ) ;
#116 = CC_DESIGN_APPROVAL ( #76, ( #58 ) ) ;
#117 = EDGE_LOOP ( 'NONE', ( #169 ) ) ;
#118 =( NAMED_UNIT ( * ) SI_UNIT ( $, .STERADIAN. ) SOLID_ANGLE_UNIT ( ) );
#119 = CARTESIAN_POINT ( 'NONE',  ( 1.047444401652940007E-14, 25.00000000000000000, 3.000000000000000000 ) ) ;
#120 = CC_DESIGN_DATE_AND_TIME_ASSIGNMENT ( #148, #132, ( #58 ) ) ;
#121 = APPROVAL_DATE_TIME ( #44, #92 ) ;
#122 = PERSON_AND_ORGANIZATION_ROLE ( 'design_supplier' ) ;
#123 = PLANE ( 'NONE',  #61 ) ;
#124 = DIRECTION ( 'NONE',  ( -3.491481338843133355E-15, 1.224646799147352961E-17, -1.000000000000000000 ) ) ;
#125 = ADVANCED_FACE ( 'NONE', ( #87, #24 ), #123, .T. ) ;
#126 = DIRECTION ( 'NONE',  ( -3.491481338843133355E-15, 1.224646799147352961E-17, -1.000000000000000000 ) ) ;
#127 = DIRECTION ( 'NONE',  ( -3.491481338843133355E-15, 1.224646799147352961E-17, -1.000000000000000000 ) ) ;
#128 = COORDINATED_UNIVERSAL_TIME_OFFSET ( 1, 0, .AHEAD. ) ;
#129 = CC_DESIGN_APPROVAL ( #31, ( #162 ) ) ;
#130 = DESIGN_CONTEXT ( 'detailed design', #110, 'design' ) ;
#131 =( NAMED_UNIT ( * ) PLANE_ANGLE_UNIT ( ) SI_UNIT ( $, .RADIAN. ) );
#132 = DATE_TIME_ROLE ( 'classification_date' ) ;
#133 = CIRCLE ( 'NONE', #36, 25.00000000000000000 ) ;
#134 = CIRCLE ( 'NONE', #97, 6.499999999999999112 ) ;
#135 = CC_DESIGN_DATE_AND_TIME_ASSIGNMENT ( #99, #15, ( #13 ) ) ;
#136 = DIRECTION ( 'NONE',  ( 4.275831445896957621E-32, 1.000000000000000000, 1.224646799147352961E-17 ) ) ;
#137 = CARTESIAN_POINT ( 'NONE',  ( 0.0000000000000000000, 0.0000000000000000000, 0.0000000000000000000 ) ) ;
#138 = ADVANCED_FACE ( 'NONE', ( #102, #150 ), #39, .F. ) ;
#139 = AXIS2_PLACEMENT_3D ( 'NONE', #62, #124, #147 ) ;
#140 = PERSON_AND_ORGANIZATION ( #55, #66 ) ;
#141 = CALENDAR_DATE ( 2021, 6, 12 ) ;
#142 = AXIS2_PLACEMENT_3D ( 'NONE', #137, #25, #65 ) ;
#143 = DIRECTION ( 'NONE',  ( 4.275831445896957621E-32, 1.000000000000000000, 1.224646799147353115E-17 ) ) ;
#144 = APPROVAL_STATUS ( 'not_yet_approved' ) ;
#145 = PERSON_AND_ORGANIZATION ( #55, #66 ) ;
#146 = CALENDAR_DATE ( 2021, 6, 12 ) ;
#147 = DIRECTION ( 'NONE',  ( 4.275831445896957621E-32, 1.000000000000000000, 1.224646799147353115E-17 ) ) ;
#148 = DATE_AND_TIME ( #9, #91 ) ;
#149 = AXIS2_PLACEMENT_3D ( 'NONE', #82, #77, #100 ) ;
#150 = FACE_OUTER_BOUND ( 'NONE', #113, .T. ) ;
#151 = FACE_BOUND ( 'NONE', #117, .T. ) ;
#152 = PRODUCT ( '35636', '35636', '', ( #72 ) ) ;
#153 = AXIS2_PLACEMENT_3D ( 'NONE', #94, #28, #136 ) ;
#154 = LOCAL_TIME ( 13, 59, 14.00000000000000000, #75 ) ;
#155 = APPROVAL_PERSON_ORGANIZATION ( #34, #92, #85 ) ;
#156 = APPROVAL_DATE_TIME ( #108, #31 ) ;
#157 = DIRECTION ( 'NONE',  ( -3.491481338843133355E-15, 1.224646799147352961E-17, -1.000000000000000000 ) ) ;
#158 = PERSON_AND_ORGANIZATION ( #55, #66 ) ;
#159 = VERTEX_POINT ( 'NONE', #119 ) ;
#160 = SHAPE_DEFINITION_REPRESENTATION ( #81, #78 ) ;
#161 = ADVANCED_FACE ( 'NONE', ( #83, #45 ), #4, .T. ) ;
#162 = PRODUCT_DEFINITION_FORMATION_WITH_SPECIFIED_SOURCE ( 'ANY', '', #152, .NOT_KNOWN. ) ;
#163 = ORIENTED_EDGE ( 'NONE', *, *, #1, .F. ) ;
#164 = COORDINATED_UNIVERSAL_TIME_OFFSET ( 1, 0, .AHEAD. ) ;
#165 = CC_DESIGN_PERSON_AND_ORGANIZATION_ASSIGNMENT ( #158, #46, ( #152 ) ) ;
#166 = ORIENTED_EDGE ( 'NONE', *, *, #6, .T. ) ;
#167 = ORIENTED_EDGE ( 'NONE', *, *, #88, .F. ) ;
#168 = LOCAL_TIME ( 13, 59, 14.00000000000000000, #2 ) ;
#169 = ORIENTED_EDGE ( 'NONE', *, *, #6, .F. ) ;
ENDSEC;
END-ISO-10303-21;
