ISO-10303-21;
HEADER;
FILE_DESCRIPTION (( 'STEP AP203' ),
    '1' );
FILE_NAME ('35635.step',
    '2021-12-06T12:59:13',
    ( '' ),
    ( '' ),
    'SwSTEP 2.0',
    'SolidWorks 2019',
    '' );
FILE_SCHEMA (( 'CONFIG_CONTROL_DESIGN' ));
ENDSEC;

DATA;
#1 = CIRCLE ( 'NONE', #29, 7.500000000000000000 ) ;
#2 = EDGE_LOOP ( 'NONE', ( #42 ) ) ;
#3 = CARTESIAN_POINT ( 'NONE',  ( 0.0000000000000000000, 0.0000000000000000000, 0.0000000000000000000 ) ) ;
#4 = DIRECTION ( 'NONE',  ( -5.130997735076348927E-31, -1.000000000000000000, -1.469576158976823553E-16 ) ) ;
#5 = LOCAL_TIME ( 13, 59, 13.00000000000000000, #72 ) ;
#6 = PLANE ( 'NONE',  #56 ) ;
#7 = COORDINATED_UNIVERSAL_TIME_OFFSET ( 1, 0, .AHEAD. ) ;
#8 = CALENDAR_DATE ( 2021, 6, 12 ) ;
#9 = CALENDAR_DATE ( 2021, 6, 12 ) ;
#10 = CALENDAR_DATE ( 2021, 6, 12 ) ;
#11 = APPROVAL_ROLE ( '' ) ;
#12 = APPROVAL_PERSON_ORGANIZATION ( #62, #134, #117 ) ;
#13 = CIRCLE ( 'NONE', #157, 2.500000000000000000 ) ;
#14 = PRODUCT_DEFINITION_SHAPE ( 'NONE', 'NONE',  #26 ) ;
#15 = CIRCLE ( 'NONE', #36, 2.500000000000000444 ) ;
#16 = EDGE_LOOP ( 'NONE', ( #40 ) ) ;
#17 = ORIENTED_EDGE ( 'NONE', *, *, #41, .T. ) ;
#18 = EDGE_LOOP ( 'NONE', ( #138 ) ) ;
#19 = LOCAL_TIME ( 13, 59, 13.00000000000000000, #24 ) ;
#20 = MANIFOLD_SOLID_BREP ( 'Corps-Déplacer/Copier1', #43 ) ;
#21 = CYLINDRICAL_SURFACE ( 'NONE', #65, 2.500000000000000444 ) ;
#22 = PERSON_AND_ORGANIZATION_ROLE ( 'classification_officer' ) ;
#23 = APPROVAL_ROLE ( '' ) ;
#24 = COORDINATED_UNIVERSAL_TIME_OFFSET ( 1, 0, .AHEAD. ) ;
#25 = APPLICATION_PROTOCOL_DEFINITION ( 'international standard', 'config_control_design', 1994, #145 ) ;
#26 = PRODUCT_DEFINITION ( 'UNKNOWN', '', #63, #156 ) ;
#27 = CARTESIAN_POINT ( 'NONE',  ( -1.710569414459005214E-46, 2.500000000000000000, 0.0000000000000000000 ) ) ;
#28 = CARTESIAN_POINT ( 'NONE',  ( 8.728703347107798876E-16, -3.673940397442044707E-17, 0.2499999999999990286 ) ) ;
#29 = AXIS2_PLACEMENT_3D ( 'NONE', #28, #68, #44 ) ;
#30 = CARTESIAN_POINT ( 'NONE',  ( 8.728703347107822541E-16, 2.500000000000000444, 0.2499999999999996669 ) ) ;
#31 = EDGE_LOOP ( 'NONE', ( #100 ) ) ;
#32 = CARTESIAN_POINT ( 'NONE',  ( -1.282749433769087582E-30, 5.399135217582685199E-32, -3.673940397442059375E-16 ) ) ;
#33 = LOCAL_TIME ( 13, 59, 13.00000000000000000, #74 ) ;
#34 = SECURITY_CLASSIFICATION_LEVEL ( 'unclassified' ) ;
#35 = MECHANICAL_CONTEXT ( 'NONE', #128, 'mechanical' ) ;
#36 = AXIS2_PLACEMENT_3D ( 'NONE', #69, #164, #108 ) ;
#37 = PRODUCT ( '35635', '35635', '', ( #35 ) ) ;
#38 = ORGANIZATION ( 'UNSPECIFIED', 'UNSPECIFIED', '' ) ;
#39 = DIRECTION ( 'NONE',  ( -3.491481338843133355E-15, 1.469576158976823553E-16, -1.000000000000000000 ) ) ;
#40 = ORIENTED_EDGE ( 'NONE', *, *, #120, .F. ) ;
#41 = EDGE_CURVE ( 'NONE', #113, #113, #15, .T. ) ;
#42 = ORIENTED_EDGE ( 'NONE', *, *, #41, .F. ) ;
#43 = CLOSED_SHELL ( 'NONE', ( #167, #79, #147, #118 ) ) ;
#44 = DIRECTION ( 'NONE',  ( 5.135813185032628650E-31, 1.000000000000000000, 1.445602896647339163E-16 ) ) ;
#45 = DIRECTION ( 'NONE',  ( 5.130997735076349802E-31, 1.000000000000000000, 1.469576158976823799E-16 ) ) ;
#46 = PERSON_AND_ORGANIZATION ( #122, #38 ) ;
#47 = DATE_AND_TIME ( #8, #5 ) ;
#48 = PERSON_AND_ORGANIZATION_ROLE ( 'creator' ) ;
#49 = PRODUCT_RELATED_PRODUCT_CATEGORY ( 'detail', '', ( #37 ) ) ;
#50 = ADVANCED_BREP_SHAPE_REPRESENTATION ( '35635', ( #20, #96 ), #161 ) ;
#51 = APPROVAL ( #115, 'UNSPECIFIED' ) ;
#52 = DIRECTION ( 'NONE',  ( 5.130997735076348927E-31, 1.000000000000000000, 1.469576158976823306E-16 ) ) ;
#53 = EDGE_LOOP ( 'NONE', ( #148 ) ) ;
#54 = FACE_OUTER_BOUND ( 'NONE', #53, .T. ) ;
#55 = DIRECTION ( 'NONE',  ( 5.130997735076348927E-31, 1.000000000000000000, 1.469576158976823553E-16 ) ) ;
#56 = AXIS2_PLACEMENT_3D ( 'NONE', #101, #57, #55 ) ;
#57 = DIRECTION ( 'NONE',  ( -3.491481338843133355E-15, 1.469576158976823553E-16, -1.000000000000000000 ) ) ;
#58 = PERSON_AND_ORGANIZATION_ROLE ( 'design_supplier' ) ;
#59 = PERSON_AND_ORGANIZATION ( #122, #38 ) ;
#60 = DATE_AND_TIME ( #9, #33 ) ;
#61 = APPROVAL_DATE_TIME ( #143, #134 ) ;
#62 = PERSON_AND_ORGANIZATION ( #122, #38 ) ;
#63 = PRODUCT_DEFINITION_FORMATION_WITH_SPECIFIED_SOURCE ( 'ANY', '', #37, .NOT_KNOWN. ) ;
#64 = UNCERTAINTY_MEASURE_WITH_UNIT (LENGTH_MEASURE( 1.000000000000000082E-05 ), #135, 'distance_accuracy_value', 'NONE');
#65 = AXIS2_PLACEMENT_3D ( 'NONE', #136, #121, #45 ) ;
#66 = DIRECTION ( 'NONE',  ( 3.491481338843133355E-15, -1.469576158976823553E-16, 1.000000000000000000 ) ) ;
#67 = SECURITY_CLASSIFICATION ( '', '', #34 ) ;
#68 = DIRECTION ( 'NONE',  ( -3.491481338843133355E-15, 1.469576158976823553E-16, -1.000000000000000000 ) ) ;
#69 = CARTESIAN_POINT ( 'NONE',  ( 8.728703347107820569E-16, -3.673940397442053335E-17, 0.2499999999999996392 ) ) ;
#70 = FACE_BOUND ( 'NONE', #123, .T. ) ;
#71 = CARTESIAN_POINT ( 'NONE',  ( 0.0000000000000000000, 7.500000000000000000, 0.0000000000000000000 ) ) ;
#72 = COORDINATED_UNIVERSAL_TIME_OFFSET ( 1, 0, .AHEAD. ) ;
#73 = CC_DESIGN_PERSON_AND_ORGANIZATION_ASSIGNMENT ( #127, #58, ( #63 ) ) ;
#74 = COORDINATED_UNIVERSAL_TIME_OFFSET ( 1, 0, .AHEAD. ) ;
#75 = CALENDAR_DATE ( 2021, 6, 12 ) ;
#76 = DATE_AND_TIME ( #75, #19 ) ;
#77 = PERSON_AND_ORGANIZATION ( #122, #38 ) ;
#78 = CC_DESIGN_PERSON_AND_ORGANIZATION_ASSIGNMENT ( #77, #48, ( #63 ) ) ;
#79 = ADVANCED_FACE ( 'NONE', ( #111, #159 ), #99, .T. ) ;
#80 = APPROVAL ( #141, 'UNSPECIFIED' ) ;
#81 = DIRECTION ( 'NONE',  ( -3.491481338843133355E-15, 1.469576158976823553E-16, -1.000000000000000000 ) ) ;
#82 = FACE_OUTER_BOUND ( 'NONE', #158, .T. ) ;
#83 = CIRCLE ( 'NONE', #133, 7.500000000000000000 ) ;
#84 = ORIENTED_EDGE ( 'NONE', *, *, #90, .F. ) ;
#85 = DIRECTION ( 'NONE',  ( 5.130997735076349802E-31, 1.000000000000000000, 1.469576158976823799E-16 ) ) ;
#86 = CC_DESIGN_PERSON_AND_ORGANIZATION_ASSIGNMENT ( #59, #131, ( #37 ) ) ;
#87 = VERTEX_POINT ( 'NONE', #71 ) ;
#88 = CC_DESIGN_APPROVAL ( #80, ( #67 ) ) ;
#89 = PERSON_AND_ORGANIZATION ( #122, #38 ) ;
#90 = EDGE_CURVE ( 'NONE', #102, #102, #13, .T. ) ;
#91 = PERSON_AND_ORGANIZATION ( #122, #38 ) ;
#92 = CARTESIAN_POINT ( 'NONE',  ( 0.0000000000000000000, 0.0000000000000000000, 0.0000000000000000000 ) ) ;
#93 = LOCAL_TIME ( 13, 59, 13.00000000000000000, #7 ) ;
#94 = DIRECTION ( 'NONE',  ( 0.0000000000000000000, 0.0000000000000000000, 1.000000000000000000 ) ) ;
#95 = PERSON_AND_ORGANIZATION ( #122, #38 ) ;
#96 = AXIS2_PLACEMENT_3D ( 'NONE', #92, #94, #154 ) ;
#97 = FACE_OUTER_BOUND ( 'NONE', #31, .T. ) ;
#98 = CC_DESIGN_PERSON_AND_ORGANIZATION_ASSIGNMENT ( #89, #22, ( #67 ) ) ;
#99 = CYLINDRICAL_SURFACE ( 'NONE', #153, 7.500000000000000000 ) ;
#100 = ORIENTED_EDGE ( 'NONE', *, *, #120, .T. ) ;
#101 = CARTESIAN_POINT ( 'NONE',  ( -1.282749433769087582E-30, 2.500000000000000000, -3.673940397442059375E-16 ) ) ;
#102 = VERTEX_POINT ( 'NONE', #27 ) ;
#103 = CC_DESIGN_SECURITY_CLASSIFICATION ( #67, ( #63 ) ) ;
#104 = DATE_TIME_ROLE ( 'classification_date' ) ;
#105 =( NAMED_UNIT ( * ) PLANE_ANGLE_UNIT ( ) SI_UNIT ( $, .RADIAN. ) );
#106 = ORIENTED_EDGE ( 'NONE', *, *, #90, .T. ) ;
#107 = APPROVAL_PERSON_ORGANIZATION ( #95, #51, #11 ) ;
#108 = DIRECTION ( 'NONE',  ( 5.392603844284259513E-31, 1.000000000000000000, 1.517883041479705961E-16 ) ) ;
#109 = PLANE ( 'NONE',  #126 ) ;
#110 = EDGE_CURVE ( 'NONE', #139, #139, #1, .T. ) ;
#111 = FACE_OUTER_BOUND ( 'NONE', #18, .T. ) ;
#112 = LOCAL_TIME ( 13, 59, 13.00000000000000000, #169 ) ;
#113 = VERTEX_POINT ( 'NONE', #146 ) ;
#114 = CC_DESIGN_DATE_AND_TIME_ASSIGNMENT ( #47, #104, ( #67 ) ) ;
#115 = APPROVAL_STATUS ( 'not_yet_approved' ) ;
#116 = APPROVAL_DATE_TIME ( #60, #80 ) ;
#117 = APPROVAL_ROLE ( '' ) ;
#118 = ADVANCED_FACE ( 'NONE', ( #82, #150 ), #21, .F. ) ;
#119 = APPROVAL_STATUS ( 'not_yet_approved' ) ;
#120 = EDGE_CURVE ( 'NONE', #87, #87, #83, .T. ) ;
#121 = DIRECTION ( 'NONE',  ( -3.491481338843133355E-15, 1.469576158976823553E-16, -1.000000000000000000 ) ) ;
#122 = PERSON ( 'UNSPECIFIED', 'UNSPECIFIED', 'UNSPECIFIED', ('UNSPECIFIED'), ('UNSPECIFIED'), ('UNSPECIFIED') ) ;
#123 = EDGE_LOOP ( 'NONE', ( #84 ) ) ;
#124 = DIRECTION ( 'NONE',  ( 5.130997735076348927E-31, 1.000000000000000000, 1.469576158976823306E-16 ) ) ;
#125 = FACE_BOUND ( 'NONE', #137, .T. ) ;
#126 = AXIS2_PLACEMENT_3D ( 'NONE', #30, #66, #4 ) ;
#127 = PERSON_AND_ORGANIZATION ( #122, #38 ) ;
#128 = APPLICATION_CONTEXT ( 'configuration controlled 3d designs of mechanical parts and assemblies' ) ;
#129 = DATE_AND_TIME ( #142, #93 ) ;
#130 = CC_DESIGN_APPROVAL ( #51, ( #26 ) ) ;
#131 = PERSON_AND_ORGANIZATION_ROLE ( 'design_owner' ) ;
#132 = DATE_TIME_ROLE ( 'creation_date' ) ;
#133 = AXIS2_PLACEMENT_3D ( 'NONE', #162, #160, #124 ) ;
#134 = APPROVAL ( #119, 'UNSPECIFIED' ) ;
#135 =( LENGTH_UNIT ( ) NAMED_UNIT ( * ) SI_UNIT ( .MILLI., .METRE. ) );
#136 = CARTESIAN_POINT ( 'NONE',  ( 0.0000000000000000000, 0.0000000000000000000, 0.0000000000000000000 ) ) ;
#137 = EDGE_LOOP ( 'NONE', ( #17 ) ) ;
#138 = ORIENTED_EDGE ( 'NONE', *, *, #110, .T. ) ;
#139 = VERTEX_POINT ( 'NONE', #151 ) ;
#140 = APPROVAL_PERSON_ORGANIZATION ( #91, #80, #23 ) ;
#141 = APPROVAL_STATUS ( 'not_yet_approved' ) ;
#142 = CALENDAR_DATE ( 2021, 6, 12 ) ;
#143 = DATE_AND_TIME ( #10, #112 ) ;
#144 = CC_DESIGN_PERSON_AND_ORGANIZATION_ASSIGNMENT ( #46, #152, ( #26 ) ) ;
#145 = APPLICATION_CONTEXT ( 'configuration controlled 3d designs of mechanical parts and assemblies' ) ;
#146 = CARTESIAN_POINT ( 'NONE',  ( 8.728703347107833388E-16, 2.500000000000000444, 0.2500000000000000000 ) ) ;
#147 = ADVANCED_FACE ( 'NONE', ( #125, #54 ), #109, .T. ) ;
#148 = ORIENTED_EDGE ( 'NONE', *, *, #110, .F. ) ;
#149 = CC_DESIGN_APPROVAL ( #134, ( #63 ) ) ;
#150 = FACE_OUTER_BOUND ( 'NONE', #2, .T. ) ;
#151 = CARTESIAN_POINT ( 'NONE',  ( 8.728703347107837333E-16, 7.500000000000000000, 0.2500000000000001110 ) ) ;
#152 = PERSON_AND_ORGANIZATION_ROLE ( 'creator' ) ;
#153 = AXIS2_PLACEMENT_3D ( 'NONE', #3, #39, #52 ) ;
#154 = DIRECTION ( 'NONE',  ( 1.000000000000000000, 0.0000000000000000000, 0.0000000000000000000 ) ) ;
#155 = APPLICATION_PROTOCOL_DEFINITION ( 'international standard', 'config_control_design', 1994, #128 ) ;
#156 = DESIGN_CONTEXT ( 'detailed design', #145, 'design' ) ;
#157 = AXIS2_PLACEMENT_3D ( 'NONE', #32, #81, #85 ) ;
#158 = EDGE_LOOP ( 'NONE', ( #106 ) ) ;
#159 = FACE_OUTER_BOUND ( 'NONE', #16, .T. ) ;
#160 = DIRECTION ( 'NONE',  ( -3.491481338843133355E-15, 1.469576158976823553E-16, -1.000000000000000000 ) ) ;
#161 =( GEOMETRIC_REPRESENTATION_CONTEXT ( 3 ) GLOBAL_UNCERTAINTY_ASSIGNED_CONTEXT ( ( #64 ) ) GLOBAL_UNIT_ASSIGNED_CONTEXT ( ( #135, #105, #165 ) ) REPRESENTATION_CONTEXT ( 'NONE', 'WORKASPACE' ) );
#162 = CARTESIAN_POINT ( 'NONE',  ( -3.848248301307261870E-30, 1.619740565274805341E-31, -1.102182119232617517E-15 ) ) ;
#163 = CC_DESIGN_DATE_AND_TIME_ASSIGNMENT ( #76, #132, ( #26 ) ) ;
#164 = DIRECTION ( 'NONE',  ( -3.491481338843133355E-15, 1.469576158976823553E-16, -1.000000000000000000 ) ) ;
#165 =( NAMED_UNIT ( * ) SI_UNIT ( $, .STERADIAN. ) SOLID_ANGLE_UNIT ( ) );
#166 = APPROVAL_DATE_TIME ( #129, #51 ) ;
#167 = ADVANCED_FACE ( 'NONE', ( #97, #70 ), #6, .T. ) ;
#168 = SHAPE_DEFINITION_REPRESENTATION ( #14, #50 ) ;
#169 = COORDINATED_UNIVERSAL_TIME_OFFSET ( 1, 0, .AHEAD. ) ;
ENDSEC;
END-ISO-10303-21;
