ISO-10303-21;
HEADER;
FILE_DESCRIPTION (( 'STEP AP203' ),
    '1' );
FILE_NAME ('35589.step',
    '2021-11-01T12:23:26',
    ( '' ),
    ( '' ),
    'SwSTEP 2.0',
    'SolidWorks 2019',
    '' );
FILE_SCHEMA (( 'CONFIG_CONTROL_DESIGN' ));
ENDSEC;

DATA;
#1 = AXIS2_PLACEMENT_3D ( 'NONE', #139, #123, #100 ) ;
#2 = ORIENTED_EDGE ( 'NONE', *, *, #199, .T. ) ;
#3 = APPLICATION_CONTEXT ( 'configuration controlled 3d designs of mechanical parts and assemblies' ) ;
#4 = EDGE_LOOP ( 'NONE', ( #156 ) ) ;
#5 = ORIENTED_EDGE ( 'NONE', *, *, #129, .F. ) ;
#6 = CONICAL_SURFACE ( 'NONE', #186, 3.600000000000002753, 0.7853981633974510546 ) ;
#7 = EDGE_LOOP ( 'NONE', ( #149 ) ) ;
#8 = PERSON_AND_ORGANIZATION ( #163, #62 ) ;
#9 = EDGE_CURVE ( 'NONE', #196, #196, #26, .T. ) ;
#10 = EDGE_LOOP ( 'NONE', ( #39 ) ) ;
#11 = CARTESIAN_POINT ( 'NONE',  ( 5.542022514505101894E-14, -2.210139082994980462E-15, 15.87298334620741436 ) ) ;
#12 = CARTESIAN_POINT ( 'NONE',  ( -6.413731847436034514E-31, 0.0000000000000000000, -1.836965810494968570E-16 ) ) ;
#13 = FACE_BOUND ( 'NONE', #133, .T. ) ;
#14 = FACE_BOUND ( 'NONE', #212, .T. ) ;
#15 = DIRECTION ( 'NONE',  ( 0.0000000000000000000, 1.000000000000000000, 0.0000000000000000000 ) ) ;
#16 = DIRECTION ( 'NONE',  ( 0.0000000000000000000, -1.000000000000000000, 0.0000000000000000000 ) ) ;
#17 = DATE_TIME_ROLE ( 'classification_date' ) ;
#18 = APPROVAL_PERSON_ORGANIZATION ( #114, #101, #57 ) ;
#19 = CC_DESIGN_PERSON_AND_ORGANIZATION_ASSIGNMENT ( #110, #47, ( #147 ) ) ;
#20 = TOROIDAL_SURFACE ( 'NONE', #36, 11.00000000000000178, 8.000000000000000000 ) ;
#21 = ORIENTED_EDGE ( 'NONE', *, *, #71, .F. ) ;
#22 = PERSON_AND_ORGANIZATION_ROLE ( 'creator' ) ;
#23 = FACE_OUTER_BOUND ( 'NONE', #4, .T. ) ;
#24 = MANIFOLD_SOLID_BREP ( 'Corps-Déplacer/Copier1[2]', #224 ) ;
#25 = FACE_OUTER_BOUND ( 'NONE', #167, .T. ) ;
#26 = CIRCLE ( 'NONE', #165, 3.600000000000002753 ) ;
#27 = DIRECTION ( 'NONE',  ( -4.282846870592449122E-31, -1.000000000000000000, -1.226656096638776648E-16 ) ) ;
#28 = CARTESIAN_POINT ( 'NONE',  ( -2.398394247531772770E-30, -2.800000000000002043, -6.869274141177154552E-16 ) ) ;
#29 = CARTESIAN_POINT ( 'NONE',  ( 2.185667318115801607E-13, -7.666288962662431950E-15, 62.60000000000000142 ) ) ;
#30 = COORDINATED_UNIVERSAL_TIME_OFFSET ( 1, 0, .AHEAD. ) ;
#31 = CARTESIAN_POINT ( 'NONE',  ( -1.199197123765886210E-30, 1.553232092642325359E-32, -3.434637070588577276E-16 ) ) ;
#32 = CALENDAR_DATE ( 2021, 1, 11 ) ;
#33 = EDGE_CURVE ( 'NONE', #241, #241, #54, .T. ) ;
#34 = PERSON_AND_ORGANIZATION ( #163, #62 ) ;
#35 = CIRCLE ( 'NONE', #116, 3.000000000000000000 ) ;
#36 = AXIS2_PLACEMENT_3D ( 'NONE', #164, #175, #206 ) ;
#37 = ORIENTED_EDGE ( 'NONE', *, *, #129, .T. ) ;
#38 = CC_DESIGN_DATE_AND_TIME_ASSIGNMENT ( #103, #68, ( #147 ) ) ;
#39 = ORIENTED_EDGE ( 'NONE', *, *, #199, .F. ) ;
#40 = DIRECTION ( 'NONE',  ( 0.0000000000000000000, -1.000000000000000000, 0.0000000000000000000 ) ) ;
#41 = COORDINATED_UNIVERSAL_TIME_OFFSET ( 1, 0, .AHEAD. ) ;
#42 = DIRECTION ( 'NONE',  ( 3.491481338843133355E-15, -1.226656096638776648E-16, 1.000000000000000000 ) ) ;
#43 = PERSON_AND_ORGANIZATION ( #163, #62 ) ;
#44 = PLANE ( 'NONE',  #138 ) ;
#45 = APPROVAL_PERSON_ORGANIZATION ( #86, #219, #144 ) ;
#46 = DIRECTION ( 'NONE',  ( 3.491481338843133355E-15, -1.227517819005651059E-16, 1.000000000000000000 ) ) ;
#47 = PERSON_AND_ORGANIZATION_ROLE ( 'creator' ) ;
#48 = COORDINATED_UNIVERSAL_TIME_OFFSET ( 1, 0, .AHEAD. ) ;
#49 = CC_DESIGN_PERSON_AND_ORGANIZATION_ASSIGNMENT ( #43, #93, ( #106 ) ) ;
#50 = CARTESIAN_POINT ( 'NONE',  ( 6.982962677686250933E-16, -2.453312193277550399E-17, 0.1999999999999995393 ) ) ;
#51 = PRODUCT_DEFINITION_SHAPE ( 'NONE', 'NONE',  #147 ) ;
#52 = LOCAL_TIME ( 13, 23, 26.00000000000000000, #30 ) ;
#53 = UNCERTAINTY_MEASURE_WITH_UNIT (LENGTH_MEASURE( 1.000000000000000082E-05 ), #66, 'distance_accuracy_value', 'NONE');
#54 = CIRCLE ( 'NONE', #184, 3.000000000000000444 ) ;
#55 = AXIS2_PLACEMENT_3D ( 'NONE', #81, #181, #16 ) ;
#56 = EDGE_LOOP ( 'NONE', ( #2 ) ) ;
#57 = APPROVAL_ROLE ( '' ) ;
#58 = CARTESIAN_POINT ( 'NONE',  ( 4.189777606611760026E-14, 2.999519565323710837E-32, 12.00000000000000000 ) ) ;
#59 = FACE_OUTER_BOUND ( 'NONE', #73, .T. ) ;
#60 = FACE_OUTER_BOUND ( 'NONE', #229, .T. ) ;
#61 = CIRCLE ( 'NONE', #207, 4.000000000000002665 ) ;
#62 = ORGANIZATION ( 'UNSPECIFIED', 'UNSPECIFIED', '' ) ;
#63 = VERTEX_POINT ( 'NONE', #28 ) ;
#64 = ADVANCED_FACE ( 'NONE', ( #119 ), #233, .F. ) ;
#65 = FACE_OUTER_BOUND ( 'NONE', #92, .T. ) ;
#66 =( LENGTH_UNIT ( ) NAMED_UNIT ( * ) SI_UNIT ( .MILLI., .METRE. ) );
#67 = DIRECTION ( 'NONE',  ( 0.0000000000000000000, 1.000000000000000000, 0.0000000000000000000 ) ) ;
#68 = DATE_TIME_ROLE ( 'creation_date' ) ;
#69 = PRODUCT ( '35589', '35589', '', ( #205 ) ) ;
#70 = CONICAL_SURFACE ( 'NONE', #122, 3.000000000000000000, 0.7853981633974433940 ) ;
#71 = EDGE_CURVE ( 'NONE', #63, #63, #180, .T. ) ;
#72 = ADVANCED_BREP_SHAPE_REPRESENTATION ( '35589', ( #192, #24, #130 ), #214 ) ;
#73 = EDGE_LOOP ( 'NONE', ( #21 ) ) ;
#74 = EDGE_LOOP ( 'NONE', ( #131 ) ) ;
#75 = CC_DESIGN_SECURITY_CLASSIFICATION ( #90, ( #106 ) ) ;
#76 = APPROVAL_STATUS ( 'not_yet_approved' ) ;
#77 = ORIENTED_EDGE ( 'NONE', *, *, #71, .T. ) ;
#78 = CLOSED_SHELL ( 'NONE', ( #91, #153, #118, #228, #64 ) ) ;
#79 = DIRECTION ( 'NONE',  ( -3.491481338843133355E-15, 1.227517819005651059E-16, -1.000000000000000000 ) ) ;
#80 = PLANE ( 'NONE',  #204 ) ;
#81 = CARTESIAN_POINT ( 'NONE',  ( 4.189777606611759395E-14, -1.473021382806781073E-15, 11.99999999999999822 ) ) ;
#82 = CC_DESIGN_PERSON_AND_ORGANIZATION_ASSIGNMENT ( #8, #198, ( #90 ) ) ;
#83 = DIRECTION ( 'NONE',  ( 3.491481338843133355E-15, -1.227517819005651059E-16, 1.000000000000000000 ) ) ;
#84 = COORDINATED_UNIVERSAL_TIME_OFFSET ( 1, 0, .AHEAD. ) ;
#85 = CC_DESIGN_APPROVAL ( #95, ( #90 ) ) ;
#86 = PERSON_AND_ORGANIZATION ( #163, #62 ) ;
#87 = DIRECTION ( 'NONE',  ( -3.491481338843133355E-15, 1.224646799147353207E-16, -1.000000000000000000 ) ) ;
#88 =( NAMED_UNIT ( * ) SI_UNIT ( $, .STERADIAN. ) SOLID_ANGLE_UNIT ( ) );
#89 = APPLICATION_PROTOCOL_DEFINITION ( 'international standard', 'config_control_design', 1994, #3 ) ;
#90 = SECURITY_CLASSIFICATION ( '', '', #230 ) ;
#91 = ADVANCED_FACE ( 'NONE', ( #220, #238 ), #104, .T. ) ;
#92 = EDGE_LOOP ( 'NONE', ( #115 ) ) ;
#93 = PERSON_AND_ORGANIZATION_ROLE ( 'design_supplier' ) ;
#94 = EDGE_LOOP ( 'NONE', ( #96 ) ) ;
#95 = APPROVAL ( #177, 'UNSPECIFIED' ) ;
#96 = ORIENTED_EDGE ( 'NONE', *, *, #33, .T. ) ;
#97 = DIRECTION ( 'NONE',  ( 0.0000000000000000000, 1.000000000000000000, 0.0000000000000000000 ) ) ;
#98 = APPROVAL_DATE_TIME ( #171, #219 ) ;
#99 = CARTESIAN_POINT ( 'NONE',  ( 4.189777606611759395E-14, -1.473021382806781073E-15, 11.99999999999999822 ) ) ;
#100 = DIRECTION ( 'NONE',  ( 4.275831445896958607E-31, 1.000000000000000000, 1.224646799147353207E-16 ) ) ;
#101 = APPROVAL ( #76, 'UNSPECIFIED' ) ;
#102 = CYLINDRICAL_SURFACE ( 'NONE', #112, 3.000000000000000888 ) ;
#103 = DATE_AND_TIME ( #155, #52 ) ;
#104 = CYLINDRICAL_SURFACE ( 'NONE', #169, 4.000000000000000000 ) ;
#105 = LOCAL_TIME ( 13, 23, 26.00000000000000000, #84 ) ;
#106 = PRODUCT_DEFINITION_FORMATION_WITH_SPECIFIED_SOURCE ( 'ANY', '', #69, .NOT_KNOWN. ) ;
#107 = CARTESIAN_POINT ( 'NONE',  ( 2.185667318115801607E-13, 3.999999999999994671, 62.60000000000000142 ) ) ;
#108 = CARTESIAN_POINT ( 'NONE',  ( 4.189777606611759395E-14, -3.000000000000001776, 11.99999999999999822 ) ) ;
#109 = PERSON_AND_ORGANIZATION_ROLE ( 'design_owner' ) ;
#110 = PERSON_AND_ORGANIZATION ( #163, #62 ) ;
#111 = CC_DESIGN_PERSON_AND_ORGANIZATION_ASSIGNMENT ( #34, #109, ( #69 ) ) ;
#112 = AXIS2_PLACEMENT_3D ( 'NONE', #12, #46, #161 ) ;
#113 = FACE_OUTER_BOUND ( 'NONE', #56, .T. ) ;
#114 = PERSON_AND_ORGANIZATION ( #163, #62 ) ;
#115 = ORIENTED_EDGE ( 'NONE', *, *, #33, .F. ) ;
#116 = AXIS2_PLACEMENT_3D ( 'NONE', #134, #215, #200 ) ;
#117 = AXIS2_PLACEMENT_3D ( 'NONE', #11, #79, #234 ) ;
#118 = ADVANCED_FACE ( 'NONE', ( #125 ), #216, .F. ) ;
#119 = FACE_OUTER_BOUND ( 'NONE', #154, .T. ) ;
#120 = CALENDAR_DATE ( 2021, 1, 11 ) ;
#121 = DIRECTION ( 'NONE',  ( -3.491481338843133355E-15, 1.224646799147353207E-16, -1.000000000000000000 ) ) ;
#122 = AXIS2_PLACEMENT_3D ( 'NONE', #50, #179, #235 ) ;
#123 = DIRECTION ( 'NONE',  ( -3.491481338843133355E-15, 1.224646799147353207E-16, -1.000000000000000000 ) ) ;
#124 = DATE_AND_TIME ( #202, #189 ) ;
#125 = FACE_OUTER_BOUND ( 'NONE', #7, .T. ) ;
#126 = DIRECTION ( 'NONE',  ( 3.491481338843133355E-15, -1.224646799147353207E-16, 1.000000000000000000 ) ) ;
#127 = CARTESIAN_POINT ( 'NONE',  ( 0.0000000000000000000, 0.0000000000000000000, 0.0000000000000000000 ) ) ;
#128 = DIRECTION ( 'NONE',  ( 1.000000000000000000, 0.0000000000000000000, 0.0000000000000000000 ) ) ;
#129 = EDGE_CURVE ( 'NONE', #145, #145, #35, .T. ) ;
#130 = AXIS2_PLACEMENT_3D ( 'NONE', #127, #201, #128 ) ;
#131 = ORIENTED_EDGE ( 'NONE', *, *, #132, .T. ) ;
#132 = EDGE_CURVE ( 'NONE', #242, #242, #61, .T. ) ;
#133 = EDGE_LOOP ( 'NONE', ( #150 ) ) ;
#134 = CARTESIAN_POINT ( 'NONE',  ( 6.982962677686250933E-16, -2.453312193277550399E-17, 0.1999999999999995393 ) ) ;
#135 = PRODUCT_RELATED_PRODUCT_CATEGORY ( 'detail', '', ( #69 ) ) ;
#136 = APPLICATION_CONTEXT ( 'configuration controlled 3d designs of mechanical parts and assemblies' ) ;
#137 = DIRECTION ( 'NONE',  ( -4.275831445896958607E-31, -1.000000000000000000, -1.224646799147353207E-16 ) ) ;
#138 = AXIS2_PLACEMENT_3D ( 'NONE', #236, #174, #158 ) ;
#139 = CARTESIAN_POINT ( 'NONE',  ( 2.199633243471174140E-13, 2.699567608791334389E-32, 63.00000000000000000 ) ) ;
#140 = CARTESIAN_POINT ( 'NONE',  ( 6.982962677686239100E-16, -3.000000000000000000, 0.1999999999999991784 ) ) ;
#141 = FACE_OUTER_BOUND ( 'NONE', #94, .T. ) ;
#142 = APPROVAL_STATUS ( 'not_yet_approved' ) ;
#143 = DATE_AND_TIME ( #32, #105 ) ;
#144 = APPROVAL_ROLE ( '' ) ;
#145 = VERTEX_POINT ( 'NONE', #140 ) ;
#146 = CIRCLE ( 'NONE', #117, 4.000000000000000000 ) ;
#147 = PRODUCT_DEFINITION ( 'UNKNOWN', '', #106, #210 ) ;
#148 = CIRCLE ( 'NONE', #55, 3.000000000000000444 ) ;
#149 = ORIENTED_EDGE ( 'NONE', *, *, #9, .F. ) ;
#150 = ORIENTED_EDGE ( 'NONE', *, *, #9, .T. ) ;
#151 = AXIS2_PLACEMENT_3D ( 'NONE', #31, #42, #27 ) ;
#152 = CC_DESIGN_APPROVAL ( #101, ( #147 ) ) ;
#153 = ADVANCED_FACE ( 'NONE', ( #23, #13 ), #6, .T. ) ;
#154 = EDGE_LOOP ( 'NONE', ( #187 ) ) ;
#155 = CALENDAR_DATE ( 2021, 1, 11 ) ;
#156 = ORIENTED_EDGE ( 'NONE', *, *, #132, .F. ) ;
#157 = DIRECTION ( 'NONE',  ( 3.491481338843133355E-15, -1.224646799147353207E-16, 1.000000000000000000 ) ) ;
#158 = DIRECTION ( 'NONE',  ( -4.275831445896958607E-31, -1.000000000000000000, -1.224646799147353207E-16 ) ) ;
#159 = CARTESIAN_POINT ( 'NONE',  ( 2.199633243471174140E-13, -7.715274834628325378E-15, 63.00000000000000000 ) ) ;
#160 = EDGE_CURVE ( 'NONE', #225, #225, #148, .T. ) ;
#161 = DIRECTION ( 'NONE',  ( -4.285855558155653280E-31, -1.000000000000000000, -1.227517819005651059E-16 ) ) ;
#162 = CARTESIAN_POINT ( 'NONE',  ( 5.542022514505101894E-14, 3.999999999999997335, 15.87298334620741436 ) ) ;
#163 = PERSON ( 'UNSPECIFIED', 'UNSPECIFIED', 'UNSPECIFIED', ('UNSPECIFIED'), ('UNSPECIFIED'), ('UNSPECIFIED') ) ;
#164 = CARTESIAN_POINT ( 'NONE',  ( 4.189777606611759395E-14, -1.734723475976807094E-15, 11.99999999999999822 ) ) ;
#165 = AXIS2_PLACEMENT_3D ( 'NONE', #193, #176, #15 ) ;
#166 = LOCAL_TIME ( 13, 23, 26.00000000000000000, #41 ) ;
#167 = EDGE_LOOP ( 'NONE', ( #37 ) ) ;
#168 = COORDINATED_UNIVERSAL_TIME_OFFSET ( 1, 0, .AHEAD. ) ;
#169 = AXIS2_PLACEMENT_3D ( 'NONE', #197, #121, #173 ) ;
#170 = CC_DESIGN_PERSON_AND_ORGANIZATION_ASSIGNMENT ( #190, #22, ( #106 ) ) ;
#171 = DATE_AND_TIME ( #188, #208 ) ;
#172 = CARTESIAN_POINT ( 'NONE',  ( 4.189777606611760026E-14, 2.999519565323710837E-32, 12.00000000000000000 ) ) ;
#173 = DIRECTION ( 'NONE',  ( 4.275831445896958607E-31, 1.000000000000000000, 1.224646799147353207E-16 ) ) ;
#174 = DIRECTION ( 'NONE',  ( 3.491481338843133355E-15, -1.224646799147353207E-16, 1.000000000000000000 ) ) ;
#175 = DIRECTION ( 'NONE',  ( 3.491481338843133355E-15, -1.227517819005651059E-16, 1.000000000000000000 ) ) ;
#176 = DIRECTION ( 'NONE',  ( -3.491481338843133355E-15, 1.224646799147353207E-16, -1.000000000000000000 ) ) ;
#177 = APPROVAL_STATUS ( 'not_yet_approved' ) ;
#178 = ADVANCED_FACE ( 'NONE', ( #65, #25 ), #102, .T. ) ;
#179 = DIRECTION ( 'NONE',  ( 3.491481338843133355E-15, -1.226656096638776648E-16, 1.000000000000000000 ) ) ;
#180 = CIRCLE ( 'NONE', #151, 2.800000000000002043 ) ;
#181 = DIRECTION ( 'NONE',  ( 3.491481338843133355E-15, -1.227517819005651059E-16, 1.000000000000000000 ) ) ;
#182 = CARTESIAN_POINT ( 'NONE',  ( 2.199633243471174140E-13, 3.599999999999995204, 63.00000000000000000 ) ) ;
#183 = DATE_AND_TIME ( #120, #166 ) ;
#184 = AXIS2_PLACEMENT_3D ( 'NONE', #99, #83, #40 ) ;
#185 = ADVANCED_FACE ( 'NONE', ( #141 ), #80, .T. ) ;
#186 = AXIS2_PLACEMENT_3D ( 'NONE', #159, #87, #97 ) ;
#187 = ORIENTED_EDGE ( 'NONE', *, *, #160, .F. ) ;
#188 = CALENDAR_DATE ( 2021, 1, 11 ) ;
#189 = LOCAL_TIME ( 13, 23, 26.00000000000000000, #48 ) ;
#190 = PERSON_AND_ORGANIZATION ( #163, #62 ) ;
#191 = DIRECTION ( 'NONE',  ( -3.491481338843133355E-15, 1.224646799147353207E-16, -1.000000000000000000 ) ) ;
#192 = MANIFOLD_SOLID_BREP ( 'Corps-Déplacer/Copier1[1]', #78 ) ;
#193 = CARTESIAN_POINT ( 'NONE',  ( 2.199633243471174140E-13, -7.715274834628325378E-15, 63.00000000000000000 ) ) ;
#194 = CC_DESIGN_APPROVAL ( #219, ( #106 ) ) ;
#195 = SHAPE_DEFINITION_REPRESENTATION ( #51, #72 ) ;
#196 = VERTEX_POINT ( 'NONE', #182 ) ;
#197 = CARTESIAN_POINT ( 'NONE',  ( 0.0000000000000000000, 0.0000000000000000000, 0.0000000000000000000 ) ) ;
#198 = PERSON_AND_ORGANIZATION_ROLE ( 'classification_officer' ) ;
#199 = EDGE_CURVE ( 'NONE', #221, #221, #146, .T. ) ;
#200 = DIRECTION ( 'NONE',  ( -4.172848212839010723E-31, -1.000000000000000000, -1.264902534566421922E-16 ) ) ;
#201 = DIRECTION ( 'NONE',  ( 0.0000000000000000000, 0.0000000000000000000, 1.000000000000000000 ) ) ;
#202 = CALENDAR_DATE ( 2021, 1, 11 ) ;
#203 =( NAMED_UNIT ( * ) PLANE_ANGLE_UNIT ( ) SI_UNIT ( $, .RADIAN. ) );
#204 = AXIS2_PLACEMENT_3D ( 'NONE', #172, #157, #222 ) ;
#205 = MECHANICAL_CONTEXT ( 'NONE', #136, 'mechanical' ) ;
#206 = DIRECTION ( 'NONE',  ( -4.341761441109884702E-31, -1.000000000000000000, -1.227517819005651059E-16 ) ) ;
#207 = AXIS2_PLACEMENT_3D ( 'NONE', #29, #191, #67 ) ;
#208 = LOCAL_TIME ( 13, 23, 26.00000000000000000, #168 ) ;
#209 = ADVANCED_FACE ( 'NONE', ( #59 ), #44, .F. ) ;
#210 = DESIGN_CONTEXT ( 'detailed design', #3, 'design' ) ;
#211 = ORIENTED_EDGE ( 'NONE', *, *, #160, .T. ) ;
#212 = EDGE_LOOP ( 'NONE', ( #77 ) ) ;
#213 = APPROVAL_PERSON_ORGANIZATION ( #237, #95, #223 ) ;
#214 =( GEOMETRIC_REPRESENTATION_CONTEXT ( 3 ) GLOBAL_UNCERTAINTY_ASSIGNED_CONTEXT ( ( #53 ) ) GLOBAL_UNIT_ASSIGNED_CONTEXT ( ( #66, #203, #88 ) ) REPRESENTATION_CONTEXT ( 'NONE', 'WORKASPACE' ) );
#215 = DIRECTION ( 'NONE',  ( 3.491481338843133355E-15, -1.226656096638776648E-16, 1.000000000000000000 ) ) ;
#216 = PLANE ( 'NONE',  #1 ) ;
#217 = APPROVAL_DATE_TIME ( #143, #95 ) ;
#218 = FACE_OUTER_BOUND ( 'NONE', #232, .T. ) ;
#219 = APPROVAL ( #142, 'UNSPECIFIED' ) ;
#220 = FACE_OUTER_BOUND ( 'NONE', #74, .T. ) ;
#221 = VERTEX_POINT ( 'NONE', #162 ) ;
#222 = DIRECTION ( 'NONE',  ( -4.275831445896958607E-31, -1.000000000000000000, -1.224646799147353207E-16 ) ) ;
#223 = APPROVAL_ROLE ( '' ) ;
#224 = CLOSED_SHELL ( 'NONE', ( #178, #185, #231, #209 ) ) ;
#225 = VERTEX_POINT ( 'NONE', #239 ) ;
#226 = APPLICATION_PROTOCOL_DEFINITION ( 'international standard', 'config_control_design', 1994, #136 ) ;
#227 = AXIS2_PLACEMENT_3D ( 'NONE', #58, #126, #137 ) ;
#228 = ADVANCED_FACE ( 'NONE', ( #60, #113 ), #20, .F. ) ;
#229 = EDGE_LOOP ( 'NONE', ( #211 ) ) ;
#230 = SECURITY_CLASSIFICATION_LEVEL ( 'unclassified' ) ;
#231 = ADVANCED_FACE ( 'NONE', ( #14, #218 ), #70, .T. ) ;
#232 = EDGE_LOOP ( 'NONE', ( #5 ) ) ;
#233 = PLANE ( 'NONE',  #227 ) ;
#234 = DIRECTION ( 'NONE',  ( 0.0000000000000000000, 1.000000000000000000, 0.0000000000000000000 ) ) ;
#235 = DIRECTION ( 'NONE',  ( -4.172848212839010723E-31, -1.000000000000000000, -1.264902534566421922E-16 ) ) ;
#236 = CARTESIAN_POINT ( 'NONE',  ( -3.206856022687257342E-31, 1.124813677168791889E-32, -9.184800694795683199E-17 ) ) ;
#237 = PERSON_AND_ORGANIZATION ( #163, #62 ) ;
#238 = FACE_OUTER_BOUND ( 'NONE', #10, .T. ) ;
#239 = CARTESIAN_POINT ( 'NONE',  ( 4.189777606611759395E-14, -3.000000000000001776, 11.99999999999999822 ) ) ;
#240 = APPROVAL_DATE_TIME ( #183, #101 ) ;
#241 = VERTEX_POINT ( 'NONE', #108 ) ;
#242 = VERTEX_POINT ( 'NONE', #107 ) ;
#243 = CC_DESIGN_DATE_AND_TIME_ASSIGNMENT ( #124, #17, ( #90 ) ) ;
ENDSEC;
END-ISO-10303-21;
