ISO-10303-21;
HEADER;
FILE_DESCRIPTION (( 'STEP AP203' ),
    '1' );
FILE_NAME ('35575.step',
    '2021-10-06T11:26:12',
    ( '' ),
    ( '' ),
    'SwSTEP 2.0',
    'SolidWorks 2019',
    '' );
FILE_SCHEMA (( 'CONFIG_CONTROL_DESIGN' ));
ENDSEC;

DATA;
#1 = APPLICATION_PROTOCOL_DEFINITION ( 'international standard', 'config_control_design', 1994, #38 ) ;
#2 = AXIS2_PLACEMENT_3D ( 'NONE', #6, #196, #30 ) ;
#3 = CARTESIAN_POINT ( 'NONE',  ( 5.586370142149013368E-14, 9.748438587302007397E-33, 16.00000000000000000 ) ) ;
#4 = DIRECTION ( 'NONE',  ( 3.491481338843133355E-15, -1.224646799147353207E-16, 1.000000000000000000 ) ) ;
#5 = APPROVAL_DATE_TIME ( #134, #24 ) ;
#6 = CARTESIAN_POINT ( 'NONE',  ( 2.116535832590183599E-15, -7.423808352706482597E-17, 0.6061999556015029711 ) ) ;
#7 = DIRECTION ( 'NONE',  ( 0.0000000000000000000, 1.000000000000000000, 0.0000000000000000000 ) ) ;
#8 = APPROVAL_STATUS ( 'not_yet_approved' ) ;
#9 = AXIS2_PLACEMENT_3D ( 'NONE', #118, #131, #7 ) ;
#10 = ORGANIZATION ( 'UNSPECIFIED', 'UNSPECIFIED', '' ) ;
#11 = EDGE_LOOP ( 'NONE', ( #146 ) ) ;
#12 = ORIENTED_EDGE ( 'NONE', *, *, #49, .F. ) ;
#13 =( NAMED_UNIT ( * ) SI_UNIT ( $, .STERADIAN. ) SOLID_ANGLE_UNIT ( ) );
#14 = CIRCLE ( 'NONE', #111, 1.299999999999993161 ) ;
#15 = CARTESIAN_POINT ( 'NONE',  ( 2.116535832590183994E-15, 1.299999999999993161, 0.6061999556015030821 ) ) ;
#16 = DATE_TIME_ROLE ( 'creation_date' ) ;
#17 = CYLINDRICAL_SURFACE ( 'NONE', #90, 1.299999999999996936 ) ;
#18 = APPROVAL_DATE_TIME ( #158, #68 ) ;
#19 = AXIS2_PLACEMENT_3D ( 'NONE', #203, #40, #109 ) ;
#20 = CC_DESIGN_PERSON_AND_ORGANIZATION_ASSIGNMENT ( #153, #123, ( #56 ) ) ;
#21 = PLANE ( 'NONE',  #86 ) ;
#22 = SECURITY_CLASSIFICATION_LEVEL ( 'unclassified' ) ;
#23 = COORDINATED_UNIVERSAL_TIME_OFFSET ( 1, 0, .AHEAD. ) ;
#24 = APPROVAL ( #8, 'UNSPECIFIED' ) ;
#25 = CONICAL_SURFACE ( 'NONE', #2, 1.299999999999993161, 1.134464013796309123 ) ;
#26 = PERSON ( 'UNSPECIFIED', 'UNSPECIFIED', 'UNSPECIFIED', ('UNSPECIFIED'), ('UNSPECIFIED'), ('UNSPECIFIED') ) ;
#27 = FACE_OUTER_BOUND ( 'NONE', #41, .T. ) ;
#28 = DIRECTION ( 'NONE',  ( -3.491481338843133355E-15, 1.224646799147353207E-16, -1.000000000000000000 ) ) ;
#29 = CC_DESIGN_PERSON_AND_ORGANIZATION_ASSIGNMENT ( #168, #61, ( #52 ) ) ;
#30 = DIRECTION ( 'NONE',  ( -2.962969145211147610E-31, -1.000000000000000000, -8.340016711427000894E-17 ) ) ;
#31 = CALENDAR_DATE ( 2021, 6, 10 ) ;
#32 = FACE_OUTER_BOUND ( 'NONE', #164, .T. ) ;
#33 = CALENDAR_DATE ( 2021, 6, 10 ) ;
#34 = CC_DESIGN_APPROVAL ( #24, ( #52 ) ) ;
#35 = APPROVAL_ROLE ( '' ) ;
#36 = EDGE_CURVE ( 'NONE', #77, #77, #159, .T. ) ;
#37 = APPROVAL_DATE_TIME ( #43, #110 ) ;
#38 = APPLICATION_CONTEXT ( 'configuration controlled 3d designs of mechanical parts and assemblies' ) ;
#39 = EDGE_LOOP ( 'NONE', ( #188 ) ) ;
#40 = DIRECTION ( 'NONE',  ( -3.491481338843133355E-15, 1.224646799147353207E-16, -1.000000000000000000 ) ) ;
#41 = EDGE_LOOP ( 'NONE', ( #189 ) ) ;
#42 = CARTESIAN_POINT ( 'NONE',  ( 5.586370142149013368E-14, 9.748438587302007397E-33, 16.00000000000000000 ) ) ;
#43 = DATE_AND_TIME ( #195, #87 ) ;
#44 = DIRECTION ( 'NONE',  ( -3.491481338843133355E-15, 1.224646799147353207E-16, -1.000000000000000000 ) ) ;
#45 = PERSON_AND_ORGANIZATION ( #26, #10 ) ;
#46 = DIRECTION ( 'NONE',  ( -3.491481338843133355E-15, 1.224646799147353207E-16, -1.000000000000000000 ) ) ;
#47 = APPROVAL_ROLE ( '' ) ;
#48 = CC_DESIGN_APPROVAL ( #68, ( #58 ) ) ;
#49 = EDGE_CURVE ( 'NONE', #75, #75, #14, .T. ) ;
#50 = CLOSED_SHELL ( 'NONE', ( #138, #175, #160, #95 ) ) ;
#51 = ORIENTED_EDGE ( 'NONE', *, *, #36, .F. ) ;
#52 = PRODUCT_DEFINITION ( 'UNKNOWN', '', #56, #147 ) ;
#53 = CIRCLE ( 'NONE', #94, 1.299999999999995159 ) ;
#54 = DIRECTION ( 'NONE',  ( 2.962969145211147610E-31, 1.000000000000000000, 8.340016711427000894E-17 ) ) ;
#55 = MECHANICAL_CONTEXT ( 'NONE', #38, 'mechanical' ) ;
#56 = PRODUCT_DEFINITION_FORMATION_WITH_SPECIFIED_SOURCE ( 'ANY', '', #190, .NOT_KNOWN. ) ;
#57 = EDGE_LOOP ( 'NONE', ( #129 ) ) ;
#58 = SECURITY_CLASSIFICATION ( '', '', #22 ) ;
#59 = FACE_OUTER_BOUND ( 'NONE', #88, .T. ) ;
#60 = MANIFOLD_SOLID_BREP ( 'Corps-Déplacer/Copier1[1]', #50 ) ;
#61 = PERSON_AND_ORGANIZATION_ROLE ( 'creator' ) ;
#62 = CARTESIAN_POINT ( 'NONE',  ( 0.0000000000000000000, 0.0000000000000000000, 0.0000000000000000000 ) ) ;
#63 = CARTESIAN_POINT ( 'NONE',  ( 5.586370142149013368E-14, 1.299999999999993161, 16.00000000000000000 ) ) ;
#64 =( NAMED_UNIT ( * ) PLANE_ANGLE_UNIT ( ) SI_UNIT ( $, .RADIAN. ) );
#65 = COORDINATED_UNIVERSAL_TIME_OFFSET ( 1, 0, .AHEAD. ) ;
#66 = AXIS2_PLACEMENT_3D ( 'NONE', #150, #152, #136 ) ;
#67 = CC_DESIGN_SECURITY_CLASSIFICATION ( #58, ( #56 ) ) ;
#68 = APPROVAL ( #78, 'UNSPECIFIED' ) ;
#69 = APPLICATION_CONTEXT ( 'configuration controlled 3d designs of mechanical parts and assemblies' ) ;
#70 = CARTESIAN_POINT ( 'NONE',  ( 2.116535832590183599E-15, -7.423808352706482597E-17, 0.6061999556015029711 ) ) ;
#71 = FACE_OUTER_BOUND ( 'NONE', #162, .T. ) ;
#72 = EDGE_LOOP ( 'NONE', ( #107 ) ) ;
#73 = ORIENTED_EDGE ( 'NONE', *, *, #174, .F. ) ;
#74 = AXIS2_PLACEMENT_3D ( 'NONE', #42, #178, #191 ) ;
#75 = VERTEX_POINT ( 'NONE', #15 ) ;
#76 = LOCAL_TIME ( 13, 26, 12.00000000000000000, #65 ) ;
#77 = VERTEX_POINT ( 'NONE', #193 ) ;
#78 = APPROVAL_STATUS ( 'not_yet_approved' ) ;
#79 = CARTESIAN_POINT ( 'NONE',  ( 1.490862531686017501E-13, -5.229241832359196822E-15, 42.69999999999998863 ) ) ;
#80 = CIRCLE ( 'NONE', #202, 1.299999999999998712 ) ;
#81 = PRODUCT_DEFINITION_SHAPE ( 'NONE', 'NONE',  #52 ) ;
#82 = CC_DESIGN_PERSON_AND_ORGANIZATION_ASSIGNMENT ( #45, #137, ( #190 ) ) ;
#83 = DIRECTION ( 'NONE',  ( -3.491481338843133355E-15, 1.224646799147353207E-16, -1.000000000000000000 ) ) ;
#84 = COORDINATED_UNIVERSAL_TIME_OFFSET ( 1, 0, .AHEAD. ) ;
#85 = COORDINATED_UNIVERSAL_TIME_OFFSET ( 1, 0, .AHEAD. ) ;
#86 = AXIS2_PLACEMENT_3D ( 'NONE', #3, #4, #198 ) ;
#87 = LOCAL_TIME ( 13, 26, 12.00000000000000000, #23 ) ;
#88 = EDGE_LOOP ( 'NONE', ( #108 ) ) ;
#89 = ADVANCED_FACE ( 'NONE', ( #71, #145 ), #144, .T. ) ;
#90 = AXIS2_PLACEMENT_3D ( 'NONE', #62, #46, #177 ) ;
#91 = PLANE ( 'NONE',  #66 ) ;
#92 = EDGE_LOOP ( 'NONE', ( #73 ) ) ;
#93 = DIRECTION ( 'NONE',  ( 0.0000000000000000000, 1.000000000000000000, 0.0000000000000000000 ) ) ;
#94 = AXIS2_PLACEMENT_3D ( 'NONE', #135, #83, #155 ) ;
#95 = ADVANCED_FACE ( 'NONE', ( #27 ), #91, .F. ) ;
#96 = CARTESIAN_POINT ( 'NONE',  ( 1.501336975702547217E-13, 0.9999999999999935607, 43.00000000000000000 ) ) ;
#97 = PERSON_AND_ORGANIZATION ( #26, #10 ) ;
#98 = FACE_OUTER_BOUND ( 'NONE', #57, .T. ) ;
#99 = SHAPE_DEFINITION_REPRESENTATION ( #81, #197 ) ;
#100 = FACE_OUTER_BOUND ( 'NONE', #92, .T. ) ;
#101 = AXIS2_PLACEMENT_3D ( 'NONE', #117, #187, #106 ) ;
#102 = CALENDAR_DATE ( 2021, 6, 10 ) ;
#103 = CC_DESIGN_DATE_AND_TIME_ASSIGNMENT ( #124, #16, ( #52 ) ) ;
#104 = CALENDAR_DATE ( 2021, 6, 10 ) ;
#105 = PERSON_AND_ORGANIZATION ( #26, #10 ) ;
#106 = DIRECTION ( 'NONE',  ( 1.000000000000000000, 0.0000000000000000000, 0.0000000000000000000 ) ) ;
#107 = ORIENTED_EDGE ( 'NONE', *, *, #36, .T. ) ;
#108 = ORIENTED_EDGE ( 'NONE', *, *, #139, .F. ) ;
#109 = DIRECTION ( 'NONE',  ( 4.275831445896958607E-31, 1.000000000000000000, 1.224646799147353207E-16 ) ) ;
#110 = APPROVAL ( #156, 'UNSPECIFIED' ) ;
#111 = AXIS2_PLACEMENT_3D ( 'NONE', #70, #143, #54 ) ;
#112 = CARTESIAN_POINT ( 'NONE',  ( 5.586370142149013368E-14, -1.959434878635765131E-15, 16.00000000000000000 ) ) ;
#113 = DIRECTION ( 'NONE',  ( 0.0000000000000000000, 1.000000000000000000, 0.0000000000000000000 ) ) ;
#114 = CC_DESIGN_PERSON_AND_ORGANIZATION_ASSIGNMENT ( #97, #132, ( #56 ) ) ;
#115 = CARTESIAN_POINT ( 'NONE',  ( 1.501336975702547217E-13, -5.265981236333618470E-15, 43.00000000000000000 ) ) ;
#116 = DATE_AND_TIME ( #31, #76 ) ;
#117 = CARTESIAN_POINT ( 'NONE',  ( 0.0000000000000000000, 0.0000000000000000000, 0.0000000000000000000 ) ) ;
#118 = CARTESIAN_POINT ( 'NONE',  ( 1.501336975702547217E-13, -5.265981236333618470E-15, 43.00000000000000000 ) ) ;
#119 = APPLICATION_PROTOCOL_DEFINITION ( 'international standard', 'config_control_design', 1994, #69 ) ;
#120 = CARTESIAN_POINT ( 'NONE',  ( 1.490862531686017501E-13, 1.299999999999993383, 42.69999999999998863 ) ) ;
#121 = PLANE ( 'NONE',  #74 ) ;
#122 = APPROVAL_PERSON_ORGANIZATION ( #170, #24, #47 ) ;
#123 = PERSON_AND_ORGANIZATION_ROLE ( 'creator' ) ;
#124 = DATE_AND_TIME ( #104, #161 ) ;
#125 = CIRCLE ( 'NONE', #9, 0.9999999999999986677 ) ;
#126 = ADVANCED_FACE ( 'NONE', ( #133 ), #25, .T. ) ;
#127 = CC_DESIGN_PERSON_AND_ORGANIZATION_ASSIGNMENT ( #179, #182, ( #58 ) ) ;
#128 = LOCAL_TIME ( 13, 26, 12.00000000000000000, #84 ) ;
#129 = ORIENTED_EDGE ( 'NONE', *, *, #139, .T. ) ;
#130 = VERTEX_POINT ( 'NONE', #96 ) ;
#131 = DIRECTION ( 'NONE',  ( -3.491481338843133355E-15, 1.224646799147353207E-16, -1.000000000000000000 ) ) ;
#132 = PERSON_AND_ORGANIZATION_ROLE ( 'design_supplier' ) ;
#133 = FACE_OUTER_BOUND ( 'NONE', #11, .T. ) ;
#134 = DATE_AND_TIME ( #102, #128 ) ;
#135 = CARTESIAN_POINT ( 'NONE',  ( 5.586370142149013368E-14, -1.959434878635765131E-15, 16.00000000000000000 ) ) ;
#136 = DIRECTION ( 'NONE',  ( 4.275831445896958607E-31, 1.000000000000000000, 1.224646799147353207E-16 ) ) ;
#137 = PERSON_AND_ORGANIZATION_ROLE ( 'design_owner' ) ;
#138 = ADVANCED_FACE ( 'NONE', ( #98 ), #121, .F. ) ;
#139 = EDGE_CURVE ( 'NONE', #154, #154, #53, .T. ) ;
#140 = AXIS2_PLACEMENT_3D ( 'NONE', #115, #172, #113 ) ;
#141 = CC_DESIGN_APPROVAL ( #110, ( #56 ) ) ;
#142 = MANIFOLD_SOLID_BREP ( 'Corps-Déplacer/Copier1[2]', #165 ) ;
#143 = DIRECTION ( 'NONE',  ( -3.491481338843133355E-15, 1.224646799147353207E-16, -1.000000000000000000 ) ) ;
#144 = CYLINDRICAL_SURFACE ( 'NONE', #19, 1.299999999999994271 ) ;
#145 = FACE_OUTER_BOUND ( 'NONE', #72, .T. ) ;
#146 = ORIENTED_EDGE ( 'NONE', *, *, #49, .T. ) ;
#147 = DESIGN_CONTEXT ( 'detailed design', #69, 'design' ) ;
#148 = ORIENTED_EDGE ( 'NONE', *, *, #174, .T. ) ;
#149 = AXIS2_PLACEMENT_3D ( 'NONE', #112, #28, #93 ) ;
#150 = CARTESIAN_POINT ( 'NONE',  ( 1.501336975702547217E-13, 7.498798913309200458E-33, 43.00000000000000000 ) ) ;
#151 = CC_DESIGN_DATE_AND_TIME_ASSIGNMENT ( #116, #186, ( #58 ) ) ;
#152 = DIRECTION ( 'NONE',  ( -3.491481338843133355E-15, 1.224646799147353207E-16, -1.000000000000000000 ) ) ;
#153 = PERSON_AND_ORGANIZATION ( #26, #10 ) ;
#154 = VERTEX_POINT ( 'NONE', #63 ) ;
#155 = DIRECTION ( 'NONE',  ( 0.0000000000000000000, 1.000000000000000000, 0.0000000000000000000 ) ) ;
#156 = APPROVAL_STATUS ( 'not_yet_approved' ) ;
#157 = EDGE_CURVE ( 'NONE', #130, #130, #125, .T. ) ;
#158 = DATE_AND_TIME ( #33, #166 ) ;
#159 = CIRCLE ( 'NONE', #149, 1.299999999999995159 ) ;
#160 = ADVANCED_FACE ( 'NONE', ( #100, #192 ), #176, .T. ) ;
#161 = LOCAL_TIME ( 13, 26, 12.00000000000000000, #199 ) ;
#162 = EDGE_LOOP ( 'NONE', ( #12 ) ) ;
#163 = ADVANCED_FACE ( 'NONE', ( #169 ), #21, .T. ) ;
#164 = EDGE_LOOP ( 'NONE', ( #148 ) ) ;
#165 = CLOSED_SHELL ( 'NONE', ( #126, #89, #163 ) ) ;
#166 = LOCAL_TIME ( 13, 26, 12.00000000000000000, #85 ) ;
#167 =( LENGTH_UNIT ( ) NAMED_UNIT ( * ) SI_UNIT ( .MILLI., .METRE. ) );
#168 = PERSON_AND_ORGANIZATION ( #26, #10 ) ;
#169 = FACE_OUTER_BOUND ( 'NONE', #201, .T. ) ;
#170 = PERSON_AND_ORGANIZATION ( #26, #10 ) ;
#171 =( GEOMETRIC_REPRESENTATION_CONTEXT ( 3 ) GLOBAL_UNCERTAINTY_ASSIGNED_CONTEXT ( ( #194 ) ) GLOBAL_UNIT_ASSIGNED_CONTEXT ( ( #167, #64, #13 ) ) REPRESENTATION_CONTEXT ( 'NONE', 'WORKASPACE' ) );
#172 = DIRECTION ( 'NONE',  ( -3.491481338843133355E-15, 1.224646799147353207E-16, -1.000000000000000000 ) ) ;
#173 = APPROVAL_ROLE ( '' ) ;
#174 = EDGE_CURVE ( 'NONE', #185, #185, #80, .T. ) ;
#175 = ADVANCED_FACE ( 'NONE', ( #59, #32 ), #17, .T. ) ;
#176 = CONICAL_SURFACE ( 'NONE', #140, 0.9999999999999986677, 0.7853981633974338461 ) ;
#177 = DIRECTION ( 'NONE',  ( 4.275831445896958607E-31, 1.000000000000000000, 1.224646799147353207E-16 ) ) ;
#178 = DIRECTION ( 'NONE',  ( 3.491481338843133355E-15, -1.224646799147353207E-16, 1.000000000000000000 ) ) ;
#179 = PERSON_AND_ORGANIZATION ( #26, #10 ) ;
#180 = DIRECTION ( 'NONE',  ( 0.0000000000000000000, 1.000000000000000000, 0.0000000000000000000 ) ) ;
#181 = PERSON_AND_ORGANIZATION ( #26, #10 ) ;
#182 = PERSON_AND_ORGANIZATION_ROLE ( 'classification_officer' ) ;
#183 = APPROVAL_PERSON_ORGANIZATION ( #105, #110, #173 ) ;
#184 = APPROVAL_PERSON_ORGANIZATION ( #181, #68, #35 ) ;
#185 = VERTEX_POINT ( 'NONE', #120 ) ;
#186 = DATE_TIME_ROLE ( 'classification_date' ) ;
#187 = DIRECTION ( 'NONE',  ( 0.0000000000000000000, 0.0000000000000000000, 1.000000000000000000 ) ) ;
#188 = ORIENTED_EDGE ( 'NONE', *, *, #157, .T. ) ;
#189 = ORIENTED_EDGE ( 'NONE', *, *, #157, .F. ) ;
#190 = PRODUCT ( '35575', '35575', '', ( #55 ) ) ;
#191 = DIRECTION ( 'NONE',  ( -4.275831445896958607E-31, -1.000000000000000000, -1.224646799147353207E-16 ) ) ;
#192 = FACE_BOUND ( 'NONE', #39, .T. ) ;
#193 = CARTESIAN_POINT ( 'NONE',  ( 5.586370142149013368E-14, 1.299999999999993161, 16.00000000000000000 ) ) ;
#194 = UNCERTAINTY_MEASURE_WITH_UNIT (LENGTH_MEASURE( 1.000000000000000082E-05 ), #167, 'distance_accuracy_value', 'NONE');
#195 = CALENDAR_DATE ( 2021, 6, 10 ) ;
#196 = DIRECTION ( 'NONE',  ( 3.491481338843133355E-15, -1.224646799147353207E-16, 1.000000000000000000 ) ) ;
#197 = ADVANCED_BREP_SHAPE_REPRESENTATION ( '35575', ( #60, #142, #101 ), #171 ) ;
#198 = DIRECTION ( 'NONE',  ( -4.275831445896958607E-31, -1.000000000000000000, -1.224646799147353207E-16 ) ) ;
#199 = COORDINATED_UNIVERSAL_TIME_OFFSET ( 1, 0, .AHEAD. ) ;
#200 = PRODUCT_RELATED_PRODUCT_CATEGORY ( 'detail', '', ( #190 ) ) ;
#201 = EDGE_LOOP ( 'NONE', ( #51 ) ) ;
#202 = AXIS2_PLACEMENT_3D ( 'NONE', #79, #44, #180 ) ;
#203 = CARTESIAN_POINT ( 'NONE',  ( 0.0000000000000000000, 0.0000000000000000000, 0.0000000000000000000 ) ) ;
ENDSEC;
END-ISO-10303-21;
