ISO-10303-21;
HEADER;
FILE_DESCRIPTION (( 'STEP AP203' ),
    '1' );
FILE_NAME ('35565.step',
    '2021-12-06T12:59:13',
    ( '' ),
    ( '' ),
    'SwSTEP 2.0',
    'SolidWorks 2019',
    '' );
FILE_SCHEMA (( 'CONFIG_CONTROL_DESIGN' ));
ENDSEC;

DATA;
#1 = VERTEX_POINT ( 'NONE', #151 ) ;
#2 = EDGE_CURVE ( 'NONE', #1, #1, #31, .T. ) ;
#3 = APPROVAL_DATE_TIME ( #30, #60 ) ;
#4 = PERSON ( 'UNSPECIFIED', 'UNSPECIFIED', 'UNSPECIFIED', ('UNSPECIFIED'), ('UNSPECIFIED'), ('UNSPECIFIED') ) ;
#5 = PERSON_AND_ORGANIZATION ( #4, #148 ) ;
#6 = CARTESIAN_POINT ( 'NONE',  ( 0.0000000000000000000, 0.0000000000000000000, 0.0000000000000000000 ) ) ;
#7 = PERSON_AND_ORGANIZATION_ROLE ( 'design_supplier' ) ;
#8 = SECURITY_CLASSIFICATION_LEVEL ( 'unclassified' ) ;
#9 = CARTESIAN_POINT ( 'NONE',  ( 0.0000000000000000000, 0.0000000000000000000, 0.0000000000000000000 ) ) ;
#10 = EDGE_LOOP ( 'NONE', ( #167 ) ) ;
#11 = DIRECTION ( 'NONE',  ( -3.491481338843133355E-15, 3.673940397442058882E-17, -1.000000000000000000 ) ) ;
#12 = FACE_BOUND ( 'NONE', #65, .T. ) ;
#13 = DIRECTION ( 'NONE',  ( -3.491481338843133355E-15, 3.673940397442058882E-17, -1.000000000000000000 ) ) ;
#14 = CC_DESIGN_SECURITY_CLASSIFICATION ( #35, ( #76 ) ) ;
#15 = PLANE ( 'NONE',  #135 ) ;
#16 = AXIS2_PLACEMENT_3D ( 'NONE', #9, #64, #155 ) ;
#17 = CC_DESIGN_PERSON_AND_ORGANIZATION_ASSIGNMENT ( #5, #138, ( #35 ) ) ;
#18 = DATE_AND_TIME ( #149, #47 ) ;
#19 = CALENDAR_DATE ( 2021, 6, 12 ) ;
#20 = VERTEX_POINT ( 'NONE', #81 ) ;
#21 = CALENDAR_DATE ( 2021, 6, 12 ) ;
#22 = PERSON_AND_ORGANIZATION ( #4, #148 ) ;
#23 = MANIFOLD_SOLID_BREP ( 'Corps-Déplacer/Copier1', #73 ) ;
#24 = DIRECTION ( 'NONE',  ( 0.0000000000000000000, 1.000000000000000000, 0.0000000000000000000 ) ) ;
#25 = EDGE_LOOP ( 'NONE', ( #109 ) ) ;
#26 = DIRECTION ( 'NONE',  ( 1.282749433769087451E-31, 1.000000000000000000, 3.673940397442059498E-17 ) ) ;
#27 = CYLINDRICAL_SURFACE ( 'NONE', #16, 10.00000000000000000 ) ;
#28 = CIRCLE ( 'NONE', #116, 10.00000000000000000 ) ;
#29 = AXIS2_PLACEMENT_3D ( 'NONE', #97, #40, #94 ) ;
#30 = DATE_AND_TIME ( #121, #54 ) ;
#31 = CIRCLE ( 'NONE', #93, 2.500000000000000000 ) ;
#32 = DATE_AND_TIME ( #19, #90 ) ;
#33 = APPROVAL_STATUS ( 'not_yet_approved' ) ;
#34 = LOCAL_TIME ( 13, 59, 13.00000000000000000, #165 ) ;
#35 = SECURITY_CLASSIFICATION ( '', '', #8 ) ;
#36 = COORDINATED_UNIVERSAL_TIME_OFFSET ( 1, 0, .AHEAD. ) ;
#37 = PERSON_AND_ORGANIZATION ( #4, #148 ) ;
#38 = CARTESIAN_POINT ( 'NONE',  ( 3.491481338843133355E-15, -3.673940397442058882E-17, 1.000000000000000000 ) ) ;
#39 = EDGE_LOOP ( 'NONE', ( #144 ) ) ;
#40 = DIRECTION ( 'NONE',  ( -3.491481338843133355E-15, 3.673940397442058882E-17, -1.000000000000000000 ) ) ;
#41 = LOCAL_TIME ( 13, 59, 13.00000000000000000, #61 ) ;
#42 = AXIS2_PLACEMENT_3D ( 'NONE', #38, #142, #24 ) ;
#43 = PLANE ( 'NONE',  #168 ) ;
#44 = PRODUCT_RELATED_PRODUCT_CATEGORY ( 'detail', '', ( #55 ) ) ;
#45 = AXIS2_PLACEMENT_3D ( 'NONE', #6, #153, #82 ) ;
#46 = CARTESIAN_POINT ( 'NONE',  ( -1.710569414459005214E-46, 10.00000000000000000, 0.0000000000000000000 ) ) ;
#47 = LOCAL_TIME ( 13, 59, 13.00000000000000000, #50 ) ;
#48 =( NAMED_UNIT ( * ) PLANE_ANGLE_UNIT ( ) SI_UNIT ( $, .RADIAN. ) );
#49 = EDGE_CURVE ( 'NONE', #20, #20, #28, .T. ) ;
#50 = COORDINATED_UNIVERSAL_TIME_OFFSET ( 1, 0, .AHEAD. ) ;
#51 = PERSON_AND_ORGANIZATION ( #4, #148 ) ;
#52 = ORIENTED_EDGE ( 'NONE', *, *, #85, .F. ) ;
#53 = EDGE_LOOP ( 'NONE', ( #139 ) ) ;
#54 = LOCAL_TIME ( 13, 59, 13.00000000000000000, #36 ) ;
#55 = PRODUCT ( '35565', '35565', '', ( #132 ) ) ;
#56 = ADVANCED_FACE ( 'NONE', ( #95, #88 ), #110, .F. ) ;
#57 = CARTESIAN_POINT ( 'NONE',  ( 3.491481338843132566E-15, 2.500000000000000444, 0.9999999999999997780 ) ) ;
#58 = ADVANCED_FACE ( 'NONE', ( #169, #156 ), #27, .T. ) ;
#59 = CALENDAR_DATE ( 2021, 6, 12 ) ;
#60 = APPROVAL ( #33, 'UNSPECIFIED' ) ;
#61 = COORDINATED_UNIVERSAL_TIME_OFFSET ( 1, 0, .AHEAD. ) ;
#62 = DATE_TIME_ROLE ( 'classification_date' ) ;
#63 = PERSON_AND_ORGANIZATION ( #4, #148 ) ;
#64 = DIRECTION ( 'NONE',  ( -3.491481338843133355E-15, 3.673940397442058882E-17, -1.000000000000000000 ) ) ;
#65 = EDGE_LOOP ( 'NONE', ( #96 ) ) ;
#66 = DIRECTION ( 'NONE',  ( 3.491481338843133355E-15, -3.673940397442058882E-17, 1.000000000000000000 ) ) ;
#67 = APPROVAL_PERSON_ORGANIZATION ( #37, #80, #122 ) ;
#68 = CIRCLE ( 'NONE', #42, 2.500000000000000444 ) ;
#69 = APPROVAL_ROLE ( '' ) ;
#70 = APPROVAL_PERSON_ORGANIZATION ( #22, #60, #69 ) ;
#71 = PERSON_AND_ORGANIZATION ( #4, #148 ) ;
#72 = ADVANCED_BREP_SHAPE_REPRESENTATION ( '35565', ( #23, #45 ), #161 ) ;
#73 = CLOSED_SHELL ( 'NONE', ( #108, #58, #147, #56 ) ) ;
#74 = DIRECTION ( 'NONE',  ( 1.282749433769087232E-31, 1.000000000000000000, 3.673940397442058882E-17 ) ) ;
#75 = CC_DESIGN_PERSON_AND_ORGANIZATION_ASSIGNMENT ( #71, #7, ( #76 ) ) ;
#76 = PRODUCT_DEFINITION_FORMATION_WITH_SPECIFIED_SOURCE ( 'ANY', '', #55, .NOT_KNOWN. ) ;
#77 = FACE_OUTER_BOUND ( 'NONE', #10, .T. ) ;
#78 = APPROVAL ( #118, 'UNSPECIFIED' ) ;
#79 = CARTESIAN_POINT ( 'NONE',  ( 3.491481338843133355E-15, 2.500000000000000444, 1.000000000000000000 ) ) ;
#80 = APPROVAL ( #152, 'UNSPECIFIED' ) ;
#81 = CARTESIAN_POINT ( 'NONE',  ( 3.491481338843133355E-15, 10.00000000000000000, 1.000000000000000000 ) ) ;
#82 = DIRECTION ( 'NONE',  ( 1.000000000000000000, 0.0000000000000000000, 0.0000000000000000000 ) ) ;
#83 = PERSON_AND_ORGANIZATION_ROLE ( 'creator' ) ;
#84 = EDGE_LOOP ( 'NONE', ( #52 ) ) ;
#85 = EDGE_CURVE ( 'NONE', #120, #120, #68, .T. ) ;
#86 = CARTESIAN_POINT ( 'NONE',  ( -3.206873584422718955E-31, 3.374459510989178249E-33, -9.184850993605148438E-17 ) ) ;
#87 = PRODUCT_DEFINITION_SHAPE ( 'NONE', 'NONE',  #166 ) ;
#88 = FACE_OUTER_BOUND ( 'NONE', #84, .T. ) ;
#89 = UNCERTAINTY_MEASURE_WITH_UNIT (LENGTH_MEASURE( 1.000000000000000082E-05 ), #102, 'distance_accuracy_value', 'NONE');
#90 = LOCAL_TIME ( 13, 59, 13.00000000000000000, #92 ) ;
#91 = APPROVAL_DATE_TIME ( #32, #80 ) ;
#92 = COORDINATED_UNIVERSAL_TIME_OFFSET ( 1, 0, .AHEAD. ) ;
#93 = AXIS2_PLACEMENT_3D ( 'NONE', #86, #125, #26 ) ;
#94 = DIRECTION ( 'NONE',  ( 1.282749433769087451E-31, 1.000000000000000000, 3.673940397442059498E-17 ) ) ;
#95 = FACE_OUTER_BOUND ( 'NONE', #157, .T. ) ;
#96 = ORIENTED_EDGE ( 'NONE', *, *, #2, .F. ) ;
#97 = CARTESIAN_POINT ( 'NONE',  ( 0.0000000000000000000, 0.0000000000000000000, 0.0000000000000000000 ) ) ;
#98 = FACE_OUTER_BOUND ( 'NONE', #25, .T. ) ;
#99 = APPROVAL_DATE_TIME ( #18, #78 ) ;
#100 = CC_DESIGN_PERSON_AND_ORGANIZATION_ASSIGNMENT ( #104, #119, ( #76 ) ) ;
#101 = APPLICATION_CONTEXT ( 'configuration controlled 3d designs of mechanical parts and assemblies' ) ;
#102 =( LENGTH_UNIT ( ) NAMED_UNIT ( * ) SI_UNIT ( .MILLI., .METRE. ) );
#103 = EDGE_CURVE ( 'NONE', #162, #162, #131, .T. ) ;
#104 = PERSON_AND_ORGANIZATION ( #4, #148 ) ;
#105 = SHAPE_DEFINITION_REPRESENTATION ( #87, #72 ) ;
#106 = CC_DESIGN_APPROVAL ( #80, ( #35 ) ) ;
#107 = CARTESIAN_POINT ( 'NONE',  ( 3.491481338843131778E-15, -3.673940397442057649E-17, 0.9999999999999995559 ) ) ;
#108 = ADVANCED_FACE ( 'NONE', ( #98, #12 ), #43, .T. ) ;
#109 = ORIENTED_EDGE ( 'NONE', *, *, #103, .T. ) ;
#110 = CYLINDRICAL_SURFACE ( 'NONE', #29, 2.500000000000000444 ) ;
#111 = AXIS2_PLACEMENT_3D ( 'NONE', #128, #13, #146 ) ;
#112 = CARTESIAN_POINT ( 'NONE',  ( -4.810310376634078213E-31, 2.500000000000000000, -1.377727649040772142E-16 ) ) ;
#113 = APPROVAL_PERSON_ORGANIZATION ( #136, #78, #163 ) ;
#114 = FACE_BOUND ( 'NONE', #53, .T. ) ;
#115 = DIRECTION ( 'NONE',  ( -1.282749433769087232E-31, -1.000000000000000000, -3.673940397442058882E-17 ) ) ;
#116 = AXIS2_PLACEMENT_3D ( 'NONE', #107, #11, #123 ) ;
#117 = APPLICATION_PROTOCOL_DEFINITION ( 'international standard', 'config_control_design', 1994, #127 ) ;
#118 = APPROVAL_STATUS ( 'not_yet_approved' ) ;
#119 = PERSON_AND_ORGANIZATION_ROLE ( 'creator' ) ;
#120 = VERTEX_POINT ( 'NONE', #79 ) ;
#121 = CALENDAR_DATE ( 2021, 6, 12 ) ;
#122 = APPROVAL_ROLE ( '' ) ;
#123 = DIRECTION ( 'NONE',  ( 1.540743955509788682E-31, 1.000000000000000000, 4.336808689942017736E-17 ) ) ;
#124 = CC_DESIGN_DATE_AND_TIME_ASSIGNMENT ( #154, #62, ( #35 ) ) ;
#125 = DIRECTION ( 'NONE',  ( -3.491481338843133355E-15, 3.673940397442058882E-17, -1.000000000000000000 ) ) ;
#126 = EDGE_LOOP ( 'NONE', ( #143 ) ) ;
#127 = APPLICATION_CONTEXT ( 'configuration controlled 3d designs of mechanical parts and assemblies' ) ;
#128 = CARTESIAN_POINT ( 'NONE',  ( -1.282749433769087582E-30, 1.349783804395671300E-32, -3.673940397442059375E-16 ) ) ;
#129 = DESIGN_CONTEXT ( 'detailed design', #127, 'design' ) ;
#130 = CC_DESIGN_PERSON_AND_ORGANIZATION_ASSIGNMENT ( #51, #83, ( #166 ) ) ;
#131 = CIRCLE ( 'NONE', #111, 10.00000000000000000 ) ;
#132 = MECHANICAL_CONTEXT ( 'NONE', #101, 'mechanical' ) ;
#133 = PERSON_AND_ORGANIZATION_ROLE ( 'design_owner' ) ;
#134 = APPLICATION_PROTOCOL_DEFINITION ( 'international standard', 'config_control_design', 1994, #101 ) ;
#135 = AXIS2_PLACEMENT_3D ( 'NONE', #57, #66, #115 ) ;
#136 = PERSON_AND_ORGANIZATION ( #4, #148 ) ;
#137 =( NAMED_UNIT ( * ) SI_UNIT ( $, .STERADIAN. ) SOLID_ANGLE_UNIT ( ) );
#138 = PERSON_AND_ORGANIZATION_ROLE ( 'classification_officer' ) ;
#139 = ORIENTED_EDGE ( 'NONE', *, *, #85, .T. ) ;
#140 = CC_DESIGN_DATE_AND_TIME_ASSIGNMENT ( #150, #164, ( #166 ) ) ;
#141 = CC_DESIGN_APPROVAL ( #78, ( #76 ) ) ;
#142 = DIRECTION ( 'NONE',  ( -3.491481338843133355E-15, 3.673940397442058882E-17, -1.000000000000000000 ) ) ;
#143 = ORIENTED_EDGE ( 'NONE', *, *, #103, .F. ) ;
#144 = ORIENTED_EDGE ( 'NONE', *, *, #49, .T. ) ;
#145 = CC_DESIGN_PERSON_AND_ORGANIZATION_ASSIGNMENT ( #63, #133, ( #55 ) ) ;
#146 = DIRECTION ( 'NONE',  ( 1.282749433769087451E-31, 1.000000000000000000, 3.673940397442059498E-17 ) ) ;
#147 = ADVANCED_FACE ( 'NONE', ( #114, #77 ), #15, .T. ) ;
#148 = ORGANIZATION ( 'UNSPECIFIED', 'UNSPECIFIED', '' ) ;
#149 = CALENDAR_DATE ( 2021, 6, 12 ) ;
#150 = DATE_AND_TIME ( #59, #34 ) ;
#151 = CARTESIAN_POINT ( 'NONE',  ( -4.276423536147513034E-47, 2.500000000000000000, 0.0000000000000000000 ) ) ;
#152 = APPROVAL_STATUS ( 'not_yet_approved' ) ;
#153 = DIRECTION ( 'NONE',  ( 0.0000000000000000000, 0.0000000000000000000, 1.000000000000000000 ) ) ;
#154 = DATE_AND_TIME ( #21, #41 ) ;
#155 = DIRECTION ( 'NONE',  ( 1.282749433769087451E-31, 1.000000000000000000, 3.673940397442059498E-17 ) ) ;
#156 = FACE_OUTER_BOUND ( 'NONE', #126, .T. ) ;
#157 = EDGE_LOOP ( 'NONE', ( #158 ) ) ;
#158 = ORIENTED_EDGE ( 'NONE', *, *, #2, .T. ) ;
#159 = DIRECTION ( 'NONE',  ( -3.491481338843133355E-15, 3.673940397442058882E-17, -1.000000000000000000 ) ) ;
#160 = CC_DESIGN_APPROVAL ( #60, ( #166 ) ) ;
#161 =( GEOMETRIC_REPRESENTATION_CONTEXT ( 3 ) GLOBAL_UNCERTAINTY_ASSIGNED_CONTEXT ( ( #89 ) ) GLOBAL_UNIT_ASSIGNED_CONTEXT ( ( #102, #48, #137 ) ) REPRESENTATION_CONTEXT ( 'NONE', 'WORKASPACE' ) );
#162 = VERTEX_POINT ( 'NONE', #46 ) ;
#163 = APPROVAL_ROLE ( '' ) ;
#164 = DATE_TIME_ROLE ( 'creation_date' ) ;
#165 = COORDINATED_UNIVERSAL_TIME_OFFSET ( 1, 0, .AHEAD. ) ;
#166 = PRODUCT_DEFINITION ( 'UNKNOWN', '', #76, #129 ) ;
#167 = ORIENTED_EDGE ( 'NONE', *, *, #49, .F. ) ;
#168 = AXIS2_PLACEMENT_3D ( 'NONE', #112, #159, #74 ) ;
#169 = FACE_OUTER_BOUND ( 'NONE', #39, .T. ) ;
ENDSEC;
END-ISO-10303-21;
