ISO-10303-21;
HEADER;
FILE_DESCRIPTION (( 'STEP AP203' ),
    '1' );
FILE_NAME ('35516.step',
    '2021-12-06T12:59:12',
    ( '' ),
    ( '' ),
    'SwSTEP 2.0',
    'SolidWorks 2019',
    '' );
FILE_SCHEMA (( 'CONFIG_CONTROL_DESIGN' ));
ENDSEC;

DATA;
#1 = AXIS2_PLACEMENT_3D ( 'NONE', #19, #91, #120 ) ;
#2 = UNCERTAINTY_MEASURE_WITH_UNIT (LENGTH_MEASURE( 1.000000000000000082E-05 ), #22, 'distance_accuracy_value', 'NONE');
#3 = EDGE_LOOP ( 'NONE', ( #161 ) ) ;
#4 = CC_DESIGN_SECURITY_CLASSIFICATION ( #23, ( #18 ) ) ;
#5 = EDGE_LOOP ( 'NONE', ( #86 ) ) ;
#6 = DIRECTION ( 'NONE',  ( 1.603436792211359477E-31, 1.000000000000000000, 4.592425496802574835E-17 ) ) ;
#7 = DIRECTION ( 'NONE',  ( -3.491481338843133355E-15, 4.592425496802574219E-17, -1.000000000000000000 ) ) ;
#8 = AXIS2_PLACEMENT_3D ( 'NONE', #21, #87, #77 ) ;
#9 = FACE_OUTER_BOUND ( 'NONE', #71, .T. ) ;
#10 = PERSON_AND_ORGANIZATION_ROLE ( 'design_owner' ) ;
#11 = CALENDAR_DATE ( 2021, 6, 12 ) ;
#12 = DATE_TIME_ROLE ( 'classification_date' ) ;
#13 = DATE_AND_TIME ( #159, #67 ) ;
#14 =( GEOMETRIC_REPRESENTATION_CONTEXT ( 3 ) GLOBAL_UNCERTAINTY_ASSIGNED_CONTEXT ( ( #2 ) ) GLOBAL_UNIT_ASSIGNED_CONTEXT ( ( #22, #95, #39 ) ) REPRESENTATION_CONTEXT ( 'NONE', 'WORKASPACE' ) );
#15 = ADVANCED_FACE ( 'NONE', ( #60, #150 ), #134, .T. ) ;
#16 = APPROVAL_PERSON_ORGANIZATION ( #106, #31, #61 ) ;
#17 = ORIENTED_EDGE ( 'NONE', *, *, #90, .T. ) ;
#18 = PRODUCT_DEFINITION_FORMATION_WITH_SPECIFIED_SOURCE ( 'ANY', '', #46, .NOT_KNOWN. ) ;
#19 = CARTESIAN_POINT ( 'NONE',  ( 2.793185071074504712E-15, -3.673940397442057033E-17, 0.7999999999999993783 ) ) ;
#20 = APPROVAL_STATUS ( 'not_yet_approved' ) ;
#21 = CARTESIAN_POINT ( 'NONE',  ( -2.405155188317038756E-30, 3.163555791552355378E-32, -6.888638245203860958E-16 ) ) ;
#22 =( LENGTH_UNIT ( ) NAMED_UNIT ( * ) SI_UNIT ( .MILLI., .METRE. ) );
#23 = SECURITY_CLASSIFICATION ( '', '', #76 ) ;
#24 = DIRECTION ( 'NONE',  ( -3.491481338843133355E-15, 4.592425496802574219E-17, -1.000000000000000000 ) ) ;
#25 = MECHANICAL_CONTEXT ( 'NONE', #74, 'mechanical' ) ;
#26 = EDGE_CURVE ( 'NONE', #51, #51, #101, .T. ) ;
#27 = APPLICATION_CONTEXT ( 'configuration controlled 3d designs of mechanical parts and assemblies' ) ;
#28 = EDGE_LOOP ( 'NONE', ( #116 ) ) ;
#29 = AXIS2_PLACEMENT_3D ( 'NONE', #164, #34, #118 ) ;
#30 = CYLINDRICAL_SURFACE ( 'NONE', #151, 15.00000000000000000 ) ;
#31 = APPROVAL ( #20, 'UNSPECIFIED' ) ;
#32 = FACE_BOUND ( 'NONE', #3, .T. ) ;
#33 = PERSON_AND_ORGANIZATION_ROLE ( 'design_supplier' ) ;
#34 = DIRECTION ( 'NONE',  ( 3.491481338843133355E-15, -4.592425496802574219E-17, 1.000000000000000000 ) ) ;
#35 = CARTESIAN_POINT ( 'NONE',  ( 0.0000000000000000000, 15.00000000000000000, 0.0000000000000000000 ) ) ;
#36 = PRODUCT_DEFINITION_SHAPE ( 'NONE', 'NONE',  #148 ) ;
#37 = COORDINATED_UNIVERSAL_TIME_OFFSET ( 1, 0, .AHEAD. ) ;
#38 = CC_DESIGN_APPROVAL ( #112, ( #23 ) ) ;
#39 =( NAMED_UNIT ( * ) SI_UNIT ( $, .STERADIAN. ) SOLID_ANGLE_UNIT ( ) );
#40 = VERTEX_POINT ( 'NONE', #109 ) ;
#41 = COORDINATED_UNIVERSAL_TIME_OFFSET ( 1, 0, .AHEAD. ) ;
#42 = APPROVAL_PERSON_ORGANIZATION ( #147, #112, #110 ) ;
#43 = EDGE_LOOP ( 'NONE', ( #56 ) ) ;
#44 = EDGE_LOOP ( 'NONE', ( #127 ) ) ;
#45 = LOCAL_TIME ( 13, 59, 12.00000000000000000, #37 ) ;
#46 = PRODUCT ( '35516', '35516', '', ( #25 ) ) ;
#47 = CYLINDRICAL_SURFACE ( 'NONE', #156, 4.000000000000000000 ) ;
#48 = CALENDAR_DATE ( 2021, 6, 12 ) ;
#49 = FACE_OUTER_BOUND ( 'NONE', #28, .T. ) ;
#50 = APPROVAL_STATUS ( 'not_yet_approved' ) ;
#51 = VERTEX_POINT ( 'NONE', #92 ) ;
#52 = DATE_AND_TIME ( #63, #45 ) ;
#53 = DATE_AND_TIME ( #48, #79 ) ;
#54 = AXIS2_PLACEMENT_3D ( 'NONE', #75, #105, #154 ) ;
#55 = DATE_AND_TIME ( #125, #84 ) ;
#56 = ORIENTED_EDGE ( 'NONE', *, *, #155, .T. ) ;
#57 = ORGANIZATION ( 'UNSPECIFIED', 'UNSPECIFIED', '' ) ;
#58 = CC_DESIGN_PERSON_AND_ORGANIZATION_ASSIGNMENT ( #122, #33, ( #18 ) ) ;
#59 = EDGE_LOOP ( 'NONE', ( #115 ) ) ;
#60 = FACE_BOUND ( 'NONE', #44, .T. ) ;
#61 = APPROVAL_ROLE ( '' ) ;
#62 = DIRECTION ( 'NONE',  ( 1.603436792211359259E-31, 1.000000000000000000, 4.592425496802574219E-17 ) ) ;
#63 = CALENDAR_DATE ( 2021, 6, 12 ) ;
#64 = AXIS2_PLACEMENT_3D ( 'NONE', #152, #7, #62 ) ;
#65 = ADVANCED_FACE ( 'NONE', ( #49, #9 ), #30, .T. ) ;
#66 = DATE_AND_TIME ( #11, #114 ) ;
#67 = LOCAL_TIME ( 13, 59, 12.00000000000000000, #41 ) ;
#68 = EDGE_CURVE ( 'NONE', #165, #165, #103, .T. ) ;
#69 = CC_DESIGN_PERSON_AND_ORGANIZATION_ASSIGNMENT ( #135, #10, ( #46 ) ) ;
#70 = AXIS2_PLACEMENT_3D ( 'NONE', #121, #24, #78 ) ;
#71 = EDGE_LOOP ( 'NONE', ( #100 ) ) ;
#72 = AXIS2_PLACEMENT_3D ( 'NONE', #143, #169, #89 ) ;
#73 = DIRECTION ( 'NONE',  ( 1.603436792211359259E-31, 1.000000000000000000, 4.592425496802574219E-17 ) ) ;
#74 = APPLICATION_CONTEXT ( 'configuration controlled 3d designs of mechanical parts and assemblies' ) ;
#75 = CARTESIAN_POINT ( 'NONE',  ( 2.793185071074506290E-15, -3.673940397442058882E-17, 0.7999999999999998224 ) ) ;
#76 = SECURITY_CLASSIFICATION_LEVEL ( 'unclassified' ) ;
#77 = DIRECTION ( 'NONE',  ( 1.603436792211359259E-31, 1.000000000000000000, 4.592425496802574219E-17 ) ) ;
#78 = DIRECTION ( 'NONE',  ( 1.603436792211359477E-31, 1.000000000000000000, 4.592425496802574835E-17 ) ) ;
#79 = LOCAL_TIME ( 13, 59, 12.00000000000000000, #157 ) ;
#80 = VERTEX_POINT ( 'NONE', #35 ) ;
#81 = PERSON_AND_ORGANIZATION_ROLE ( 'creator' ) ;
#82 = COORDINATED_UNIVERSAL_TIME_OFFSET ( 1, 0, .AHEAD. ) ;
#83 = APPROVAL_DATE_TIME ( #55, #112 ) ;
#84 = LOCAL_TIME ( 13, 59, 12.00000000000000000, #82 ) ;
#85 = CC_DESIGN_DATE_AND_TIME_ASSIGNMENT ( #13, #12, ( #23 ) ) ;
#86 = ORIENTED_EDGE ( 'NONE', *, *, #68, .F. ) ;
#87 = DIRECTION ( 'NONE',  ( -3.491481338843133355E-15, 4.592425496802574219E-17, -1.000000000000000000 ) ) ;
#88 = FACE_OUTER_BOUND ( 'NONE', #59, .T. ) ;
#89 = DIRECTION ( 'NONE',  ( 1.000000000000000000, 0.0000000000000000000, 0.0000000000000000000 ) ) ;
#90 = EDGE_CURVE ( 'NONE', #80, #80, #163, .T. ) ;
#91 = DIRECTION ( 'NONE',  ( -3.491481338843133355E-15, 4.592425496802574219E-17, -1.000000000000000000 ) ) ;
#92 = CARTESIAN_POINT ( 'NONE',  ( 2.793185071074507079E-15, 4.000000000000000000, 0.8000000000000000444 ) ) ;
#93 = CLOSED_SHELL ( 'NONE', ( #111, #65, #15, #107 ) ) ;
#94 = CC_DESIGN_PERSON_AND_ORGANIZATION_ASSIGNMENT ( #104, #153, ( #18 ) ) ;
#95 =( NAMED_UNIT ( * ) PLANE_ANGLE_UNIT ( ) SI_UNIT ( $, .RADIAN. ) );
#96 = PERSON_AND_ORGANIZATION ( #160, #57 ) ;
#97 = DESIGN_CONTEXT ( 'detailed design', #27, 'design' ) ;
#98 = APPROVAL ( #50, 'UNSPECIFIED' ) ;
#99 = CC_DESIGN_APPROVAL ( #98, ( #148 ) ) ;
#100 = ORIENTED_EDGE ( 'NONE', *, *, #90, .F. ) ;
#101 = CIRCLE ( 'NONE', #54, 4.000000000000000000 ) ;
#102 = CARTESIAN_POINT ( 'NONE',  ( 0.0000000000000000000, 0.0000000000000000000, 0.0000000000000000000 ) ) ;
#103 = CIRCLE ( 'NONE', #1, 15.00000000000000000 ) ;
#104 = PERSON_AND_ORGANIZATION ( #160, #57 ) ;
#105 = DIRECTION ( 'NONE',  ( -3.491481338843133355E-15, 4.592425496802574219E-17, -1.000000000000000000 ) ) ;
#106 = PERSON_AND_ORGANIZATION ( #160, #57 ) ;
#107 = ADVANCED_FACE ( 'NONE', ( #141, #88 ), #47, .F. ) ;
#108 = APPROVAL_DATE_TIME ( #52, #98 ) ;
#109 = CARTESIAN_POINT ( 'NONE',  ( -8.552847072295026068E-47, 4.000000000000000000, 0.0000000000000000000 ) ) ;
#110 = APPROVAL_ROLE ( '' ) ;
#111 = ADVANCED_FACE ( 'NONE', ( #132, #32 ), #162, .T. ) ;
#112 = APPROVAL ( #123, 'UNSPECIFIED' ) ;
#113 = ADVANCED_BREP_SHAPE_REPRESENTATION ( '35516', ( #136, #72 ), #14 ) ;
#114 = LOCAL_TIME ( 13, 59, 12.00000000000000000, #119 ) ;
#115 = ORIENTED_EDGE ( 'NONE', *, *, #26, .F. ) ;
#116 = ORIENTED_EDGE ( 'NONE', *, *, #68, .T. ) ;
#117 = CC_DESIGN_APPROVAL ( #31, ( #18 ) ) ;
#118 = DIRECTION ( 'NONE',  ( -1.603436792211359259E-31, -1.000000000000000000, -4.592425496802574219E-17 ) ) ;
#119 = COORDINATED_UNIVERSAL_TIME_OFFSET ( 1, 0, .AHEAD. ) ;
#120 = DIRECTION ( 'NONE',  ( 1.540743955509788682E-31, 1.000000000000000000, 4.336808689942017736E-17 ) ) ;
#121 = CARTESIAN_POINT ( 'NONE',  ( -6.413747168845438786E-31, 8.436148777472949044E-33, -1.836970198721029934E-16 ) ) ;
#122 = PERSON_AND_ORGANIZATION ( #160, #57 ) ;
#123 = APPROVAL_STATUS ( 'not_yet_approved' ) ;
#124 = CC_DESIGN_PERSON_AND_ORGANIZATION_ASSIGNMENT ( #96, #81, ( #148 ) ) ;
#125 = CALENDAR_DATE ( 2021, 6, 12 ) ;
#126 = CC_DESIGN_DATE_AND_TIME_ASSIGNMENT ( #53, #137, ( #148 ) ) ;
#127 = ORIENTED_EDGE ( 'NONE', *, *, #26, .T. ) ;
#128 = EDGE_LOOP ( 'NONE', ( #17 ) ) ;
#129 = PRODUCT_RELATED_PRODUCT_CATEGORY ( 'detail', '', ( #46 ) ) ;
#130 = DIRECTION ( 'NONE',  ( -3.491481338843133355E-15, 4.592425496802574219E-17, -1.000000000000000000 ) ) ;
#131 = APPROVAL_ROLE ( '' ) ;
#132 = FACE_OUTER_BOUND ( 'NONE', #128, .T. ) ;
#133 = PERSON_AND_ORGANIZATION ( #160, #57 ) ;
#134 = PLANE ( 'NONE',  #29 ) ;
#135 = PERSON_AND_ORGANIZATION ( #160, #57 ) ;
#136 = MANIFOLD_SOLID_BREP ( 'Corps-Déplacer/Copier1', #93 ) ;
#137 = DATE_TIME_ROLE ( 'creation_date' ) ;
#138 = PERSON_AND_ORGANIZATION_ROLE ( 'classification_officer' ) ;
#139 = CIRCLE ( 'NONE', #70, 4.000000000000000000 ) ;
#140 = SHAPE_DEFINITION_REPRESENTATION ( #36, #113 ) ;
#141 = FACE_OUTER_BOUND ( 'NONE', #43, .T. ) ;
#142 = CARTESIAN_POINT ( 'NONE',  ( 0.0000000000000000000, 0.0000000000000000000, 0.0000000000000000000 ) ) ;
#143 = CARTESIAN_POINT ( 'NONE',  ( 0.0000000000000000000, 0.0000000000000000000, 0.0000000000000000000 ) ) ;
#144 = DIRECTION ( 'NONE',  ( -3.491481338843133355E-15, 4.592425496802574219E-17, -1.000000000000000000 ) ) ;
#145 = APPLICATION_PROTOCOL_DEFINITION ( 'international standard', 'config_control_design', 1994, #74 ) ;
#146 = CARTESIAN_POINT ( 'NONE',  ( 2.793185071074507079E-15, 15.00000000000000000, 0.8000000000000000444 ) ) ;
#147 = PERSON_AND_ORGANIZATION ( #160, #57 ) ;
#148 = PRODUCT_DEFINITION ( 'UNKNOWN', '', #18, #97 ) ;
#149 = CC_DESIGN_PERSON_AND_ORGANIZATION_ASSIGNMENT ( #133, #138, ( #23 ) ) ;
#150 = FACE_OUTER_BOUND ( 'NONE', #5, .T. ) ;
#151 = AXIS2_PLACEMENT_3D ( 'NONE', #142, #144, #73 ) ;
#152 = CARTESIAN_POINT ( 'NONE',  ( -8.818902357162476141E-31, 4.000000000000000000, -2.525834023241415882E-16 ) ) ;
#153 = PERSON_AND_ORGANIZATION_ROLE ( 'creator' ) ;
#154 = DIRECTION ( 'NONE',  ( 1.925929944387235853E-31, 1.000000000000000000, 5.421010862427522170E-17 ) ) ;
#155 = EDGE_CURVE ( 'NONE', #40, #40, #139, .T. ) ;
#156 = AXIS2_PLACEMENT_3D ( 'NONE', #102, #130, #6 ) ;
#157 = COORDINATED_UNIVERSAL_TIME_OFFSET ( 1, 0, .AHEAD. ) ;
#158 = APPROVAL_DATE_TIME ( #66, #31 ) ;
#159 = CALENDAR_DATE ( 2021, 6, 12 ) ;
#160 = PERSON ( 'UNSPECIFIED', 'UNSPECIFIED', 'UNSPECIFIED', ('UNSPECIFIED'), ('UNSPECIFIED'), ('UNSPECIFIED') ) ;
#161 = ORIENTED_EDGE ( 'NONE', *, *, #155, .F. ) ;
#162 = PLANE ( 'NONE',  #64 ) ;
#163 = CIRCLE ( 'NONE', #8, 15.00000000000000000 ) ;
#164 = CARTESIAN_POINT ( 'NONE',  ( 2.793185071074506290E-15, 4.000000000000000000, 0.7999999999999998224 ) ) ;
#165 = VERTEX_POINT ( 'NONE', #146 ) ;
#166 = PERSON_AND_ORGANIZATION ( #160, #57 ) ;
#167 = APPLICATION_PROTOCOL_DEFINITION ( 'international standard', 'config_control_design', 1994, #27 ) ;
#168 = APPROVAL_PERSON_ORGANIZATION ( #166, #98, #131 ) ;
#169 = DIRECTION ( 'NONE',  ( 0.0000000000000000000, 0.0000000000000000000, 1.000000000000000000 ) ) ;
ENDSEC;
END-ISO-10303-21;
