ISO-10303-21;
HEADER;
FILE_DESCRIPTION (( 'STEP AP203' ),
    '1' );
FILE_NAME ('35506.step',
    '2021-11-24T08:31:51',
    ( '' ),
    ( '' ),
    'SwSTEP 2.0',
    'SolidWorks 2019',
    '' );
FILE_SCHEMA (( 'CONFIG_CONTROL_DESIGN' ));
ENDSEC;

DATA;
#1 = APPROVAL_STATUS ( 'not_yet_approved' ) ;
#2 = CIRCLE ( 'NONE', #84, 1.000000000000000222 ) ;
#3 = DATE_TIME_ROLE ( 'classification_date' ) ;
#4 = DIRECTION ( 'NONE',  ( 3.491481338843133355E-15, -1.224646799147353207E-16, 1.000000000000000000 ) ) ;
#5 = ADVANCED_FACE ( 'NONE', ( #57 ), #37, .T. ) ;
#6 = AXIS2_PLACEMENT_3D ( 'NONE', #38, #102, #8 ) ;
#7 = DIRECTION ( 'NONE',  ( -3.491481338843133355E-15, 1.224646799147353207E-16, -1.000000000000000000 ) ) ;
#8 = DIRECTION ( 'NONE',  ( -4.275831445896958607E-31, -1.000000000000000000, -1.224646799147353207E-16 ) ) ;
#9 = EDGE_LOOP ( 'NONE', ( #195 ) ) ;
#10 = AXIS2_PLACEMENT_3D ( 'NONE', #30, #45, #71 ) ;
#11 = CARTESIAN_POINT ( 'NONE',  ( 1.954557862536223490E-14, -6.855666113616943562E-16, 5.598076211353449239 ) ) ;
#12 = EDGE_LOOP ( 'NONE', ( #72 ) ) ;
#13 = APPROVAL_DATE_TIME ( #202, #149 ) ;
#14 = PERSON_AND_ORGANIZATION ( #159, #116 ) ;
#15 =( NAMED_UNIT ( * ) SI_UNIT ( $, .STERADIAN. ) SOLID_ANGLE_UNIT ( ) );
#16 = AXIS2_PLACEMENT_3D ( 'NONE', #43, #105, #136 ) ;
#17 = PERSON_AND_ORGANIZATION ( #159, #116 ) ;
#18 =( NAMED_UNIT ( * ) PLANE_ANGLE_UNIT ( ) SI_UNIT ( $, .RADIAN. ) );
#19 = CALENDAR_DATE ( 2021, 24, 11 ) ;
#20 = DATE_AND_TIME ( #40, #173 ) ;
#21 = VERTEX_POINT ( 'NONE', #99 ) ;
#22 = PRODUCT_DEFINITION_SHAPE ( 'NONE', 'NONE',  #111 ) ;
#23 = EDGE_LOOP ( 'NONE', ( #52 ) ) ;
#24 = ORIENTED_EDGE ( 'NONE', *, *, #144, .F. ) ;
#25 = DIRECTION ( 'NONE',  ( -3.491481338843133355E-15, 1.224646799147353207E-16, -1.000000000000000000 ) ) ;
#26 = EDGE_LOOP ( 'NONE', ( #67 ) ) ;
#27 = PERSON_AND_ORGANIZATION ( #159, #116 ) ;
#28 = PERSON_AND_ORGANIZATION_ROLE ( 'classification_officer' ) ;
#29 = CC_DESIGN_APPROVAL ( #198, ( #111 ) ) ;
#30 = CARTESIAN_POINT ( 'NONE',  ( 0.0000000000000000000, 0.0000000000000000000, 0.0000000000000000000 ) ) ;
#31 = EDGE_CURVE ( 'NONE', #63, #63, #2, .T. ) ;
#32 = APPROVAL_PERSON_ORGANIZATION ( #95, #198, #161 ) ;
#33 = VERTEX_POINT ( 'NONE', #190 ) ;
#34 = CLOSED_SHELL ( 'NONE', ( #193, #187, #5 ) ) ;
#35 = AXIS2_PLACEMENT_3D ( 'NONE', #48, #4, #142 ) ;
#36 = SECURITY_CLASSIFICATION ( '', '', #137 ) ;
#37 = PLANE ( 'NONE',  #177 ) ;
#38 = CARTESIAN_POINT ( 'NONE',  ( 1.954557862536223490E-14, 1.874699728327318178E-32, 5.598076211353449239 ) ) ;
#39 = DIRECTION ( 'NONE',  ( 0.0000000000000000000, 1.000000000000000000, 0.0000000000000000000 ) ) ;
#40 = CALENDAR_DATE ( 2021, 24, 11 ) ;
#41 = CARTESIAN_POINT ( 'NONE',  ( 1.990144363140586139E-13, 1.499759782661849123E-32, 57.00000000000000000 ) ) ;
#42 = COORDINATED_UNIVERSAL_TIME_OFFSET ( 1, 0, .AHEAD. ) ;
#43 = CARTESIAN_POINT ( 'NONE',  ( 1.954557862536223490E-14, -6.855666113616943562E-16, 5.598076211353449239 ) ) ;
#44 = PERSON_AND_ORGANIZATION_ROLE ( 'design_owner' ) ;
#45 = DIRECTION ( 'NONE',  ( 0.0000000000000000000, 0.0000000000000000000, 1.000000000000000000 ) ) ;
#46 = CC_DESIGN_APPROVAL ( #149, ( #36 ) ) ;
#47 = COORDINATED_UNIVERSAL_TIME_OFFSET ( 1, 0, .AHEAD. ) ;
#48 = CARTESIAN_POINT ( 'NONE',  ( -2.451798965653182205E-32, 8.599753124943916224E-34, -7.022231333092447903E-18 ) ) ;
#49 = CARTESIAN_POINT ( 'NONE',  ( 3.785471652766323151E-31, 1.000000000000000222, 1.084202172485504434E-16 ) ) ;
#50 = CIRCLE ( 'NONE', #108, 2.499999999999996003 ) ;
#51 = PRODUCT_RELATED_PRODUCT_CATEGORY ( 'detail', '', ( #64 ) ) ;
#52 = ORIENTED_EDGE ( 'NONE', *, *, #58, .F. ) ;
#53 = EDGE_LOOP ( 'NONE', ( #68 ) ) ;
#54 = LOCAL_TIME ( 9, 31, 51.00000000000000000, #106 ) ;
#55 = DIRECTION ( 'NONE',  ( 0.0000000000000000000, 1.000000000000000000, 0.0000000000000000000 ) ) ;
#56 = PLANE ( 'NONE',  #164 ) ;
#57 = FACE_OUTER_BOUND ( 'NONE', #53, .T. ) ;
#58 = EDGE_CURVE ( 'NONE', #176, #176, #50, .T. ) ;
#59 = FACE_OUTER_BOUND ( 'NONE', #88, .T. ) ;
#60 = APPROVAL_STATUS ( 'not_yet_approved' ) ;
#61 = DIRECTION ( 'NONE',  ( 0.0000000000000000000, 1.000000000000000000, 0.0000000000000000000 ) ) ;
#62 = AXIS2_PLACEMENT_3D ( 'NONE', #197, #131, #55 ) ;
#63 = VERTEX_POINT ( 'NONE', #49 ) ;
#64 = PRODUCT ( '35506', '35506', '', ( #138 ) ) ;
#65 = ADVANCED_FACE ( 'NONE', ( #85 ), #178, .F. ) ;
#66 = CYLINDRICAL_SURFACE ( 'NONE', #81, 2.499999999999999112 ) ;
#67 = ORIENTED_EDGE ( 'NONE', *, *, #144, .T. ) ;
#68 = ORIENTED_EDGE ( 'NONE', *, *, #182, .F. ) ;
#69 = DIRECTION ( 'NONE',  ( 0.0000000000000000000, 1.000000000000000000, 0.0000000000000000000 ) ) ;
#70 = ADVANCED_FACE ( 'NONE', ( #103, #83 ), #66, .T. ) ;
#71 = DIRECTION ( 'NONE',  ( 1.000000000000000000, 0.0000000000000000000, 0.0000000000000000000 ) ) ;
#72 = ORIENTED_EDGE ( 'NONE', *, *, #182, .T. ) ;
#73 = UNCERTAINTY_MEASURE_WITH_UNIT (LENGTH_MEASURE( 1.000000000000000082E-05 ), #97, 'distance_accuracy_value', 'NONE');
#74 = APPLICATION_PROTOCOL_DEFINITION ( 'international standard', 'config_control_design', 1994, #107 ) ;
#75 = FACE_BOUND ( 'NONE', #87, .T. ) ;
#76 = APPROVAL_STATUS ( 'not_yet_approved' ) ;
#77 = APPROVAL_ROLE ( '' ) ;
#78 = DATE_AND_TIME ( #19, #175 ) ;
#79 = CALENDAR_DATE ( 2021, 24, 11 ) ;
#80 = ADVANCED_FACE ( 'NONE', ( #130, #184 ), #189, .T. ) ;
#81 = AXIS2_PLACEMENT_3D ( 'NONE', #148, #199, #171 ) ;
#82 = ADVANCED_FACE ( 'NONE', ( #129 ), #56, .F. ) ;
#83 = FACE_OUTER_BOUND ( 'NONE', #26, .T. ) ;
#84 = AXIS2_PLACEMENT_3D ( 'NONE', #100, #120, #170 ) ;
#85 = FACE_OUTER_BOUND ( 'NONE', #143, .T. ) ;
#86 = CC_DESIGN_PERSON_AND_ORGANIZATION_ASSIGNMENT ( #14, #154, ( #124 ) ) ;
#87 = EDGE_LOOP ( 'NONE', ( #133 ) ) ;
#88 = EDGE_LOOP ( 'NONE', ( #114 ) ) ;
#89 = PERSON_AND_ORGANIZATION ( #159, #116 ) ;
#90 = CC_DESIGN_PERSON_AND_ORGANIZATION_ASSIGNMENT ( #122, #28, ( #36 ) ) ;
#91 = DATE_TIME_ROLE ( 'creation_date' ) ;
#92 = APPROVAL_PERSON_ORGANIZATION ( #17, #149, #77 ) ;
#93 = CALENDAR_DATE ( 2021, 24, 11 ) ;
#94 = CC_DESIGN_PERSON_AND_ORGANIZATION_ASSIGNMENT ( #158, #44, ( #64 ) ) ;
#95 = PERSON_AND_ORGANIZATION ( #159, #116 ) ;
#96 = CC_DESIGN_DATE_AND_TIME_ASSIGNMENT ( #20, #91, ( #111 ) ) ;
#97 =( LENGTH_UNIT ( ) NAMED_UNIT ( * ) SI_UNIT ( .MILLI., .METRE. ) );
#98 = CIRCLE ( 'NONE', #62, 2.500000000000002220 ) ;
#99 = CARTESIAN_POINT ( 'NONE',  ( 1.954557862536223490E-14, 2.499999999999995115, 5.598076211353449239 ) ) ;
#100 = CARTESIAN_POINT ( 'NONE',  ( -4.903597931306364411E-32, 1.719950624988783245E-33, -1.404446266618489581E-17 ) ) ;
#101 = CONICAL_SURFACE ( 'NONE', #16, 2.499999999999996003, 0.2617993877991428020 ) ;
#102 = DIRECTION ( 'NONE',  ( 3.491481338843133355E-15, -1.224646799147353207E-16, 1.000000000000000000 ) ) ;
#103 = FACE_OUTER_BOUND ( 'NONE', #23, .T. ) ;
#104 = PERSON_AND_ORGANIZATION_ROLE ( 'creator' ) ;
#105 = DIRECTION ( 'NONE',  ( 3.491481338843133355E-15, -1.224646799147353207E-16, 1.000000000000000000 ) ) ;
#106 = COORDINATED_UNIVERSAL_TIME_OFFSET ( 1, 0, .AHEAD. ) ;
#107 = APPLICATION_CONTEXT ( 'configuration controlled 3d designs of mechanical parts and assemblies' ) ;
#108 = AXIS2_PLACEMENT_3D ( 'NONE', #11, #7, #69 ) ;
#109 = APPLICATION_PROTOCOL_DEFINITION ( 'international standard', 'config_control_design', 1994, #185 ) ;
#110 = CIRCLE ( 'NONE', #166, 2.000000000000002220 ) ;
#111 = PRODUCT_DEFINITION ( 'UNKNOWN', '', #124, #155 ) ;
#112 = CARTESIAN_POINT ( 'NONE',  ( 1.972686956446370535E-13, 2.499999999999995115, 56.50000000000000000 ) ) ;
#113 = CARTESIAN_POINT ( 'NONE',  ( 1.954557862536223490E-14, 1.874699728327318178E-32, 5.598076211353449239 ) ) ;
#114 = ORIENTED_EDGE ( 'NONE', *, *, #31, .T. ) ;
#115 = CC_DESIGN_PERSON_AND_ORGANIZATION_ASSIGNMENT ( #89, #160, ( #124 ) ) ;
#116 = ORGANIZATION ( 'UNSPECIFIED', 'UNSPECIFIED', '' ) ;
#117 = DIRECTION ( 'NONE',  ( -3.491481338843133355E-15, 1.224646799147353207E-16, -1.000000000000000000 ) ) ;
#118 = DIRECTION ( 'NONE',  ( -3.491481338843133355E-15, 1.224646799147353207E-16, -1.000000000000000000 ) ) ;
#119 = APPROVAL ( #76, 'UNSPECIFIED' ) ;
#120 = DIRECTION ( 'NONE',  ( -3.491481338843133355E-15, 1.224646799147353207E-16, -1.000000000000000000 ) ) ;
#121 =( GEOMETRIC_REPRESENTATION_CONTEXT ( 3 ) GLOBAL_UNCERTAINTY_ASSIGNED_CONTEXT ( ( #73 ) ) GLOBAL_UNIT_ASSIGNED_CONTEXT ( ( #97, #18, #15 ) ) REPRESENTATION_CONTEXT ( 'NONE', 'WORKASPACE' ) );
#122 = PERSON_AND_ORGANIZATION ( #159, #116 ) ;
#123 = EDGE_CURVE ( 'NONE', #33, #33, #110, .T. ) ;
#124 = PRODUCT_DEFINITION_FORMATION_WITH_SPECIFIED_SOURCE ( 'ANY', '', #64, .NOT_KNOWN. ) ;
#125 = FACE_OUTER_BOUND ( 'NONE', #12, .T. ) ;
#126 = SHAPE_DEFINITION_REPRESENTATION ( #22, #192 ) ;
#127 = LOCAL_TIME ( 9, 31, 51.00000000000000000, #42 ) ;
#128 = APPROVAL_PERSON_ORGANIZATION ( #27, #119, #134 ) ;
#129 = FACE_OUTER_BOUND ( 'NONE', #9, .T. ) ;
#130 = FACE_OUTER_BOUND ( 'NONE', #201, .T. ) ;
#131 = DIRECTION ( 'NONE',  ( -3.491481338843133355E-15, 1.224646799147353207E-16, -1.000000000000000000 ) ) ;
#132 = CARTESIAN_POINT ( 'NONE',  ( 1.990144363140586139E-13, -6.980486755139912911E-15, 57.00000000000000000 ) ) ;
#133 = ORIENTED_EDGE ( 'NONE', *, *, #31, .F. ) ;
#134 = APPROVAL_ROLE ( '' ) ;
#135 = CC_DESIGN_APPROVAL ( #119, ( #124 ) ) ;
#136 = DIRECTION ( 'NONE',  ( 0.0000000000000000000, -1.000000000000000000, 0.0000000000000000000 ) ) ;
#137 = SECURITY_CLASSIFICATION_LEVEL ( 'unclassified' ) ;
#138 = MECHANICAL_CONTEXT ( 'NONE', #107, 'mechanical' ) ;
#139 = APPROVAL_DATE_TIME ( #78, #198 ) ;
#140 = COORDINATED_UNIVERSAL_TIME_OFFSET ( 1, 0, .AHEAD. ) ;
#141 = AXIS2_PLACEMENT_3D ( 'NONE', #169, #118, #168 ) ;
#142 = DIRECTION ( 'NONE',  ( -4.275831445896958607E-31, -1.000000000000000000, -1.224646799147353207E-16 ) ) ;
#143 = EDGE_LOOP ( 'NONE', ( #153 ) ) ;
#144 = EDGE_CURVE ( 'NONE', #191, #191, #98, .T. ) ;
#145 = MANIFOLD_SOLID_BREP ( 'Corps-Déplacer/Copier1[2]', #34 ) ;
#146 = DIRECTION ( 'NONE',  ( -4.275831445896958607E-31, -1.000000000000000000, -1.224646799147353207E-16 ) ) ;
#147 = MANIFOLD_SOLID_BREP ( 'Corps-Déplacer/Copier1[1]', #151 ) ;
#148 = CARTESIAN_POINT ( 'NONE',  ( 0.0000000000000000000, 0.0000000000000000000, 0.0000000000000000000 ) ) ;
#149 = APPROVAL ( #60, 'UNSPECIFIED' ) ;
#150 = ORIENTED_EDGE ( 'NONE', *, *, #123, .T. ) ;
#151 = CLOSED_SHELL ( 'NONE', ( #65, #70, #80, #82 ) ) ;
#152 = CC_DESIGN_SECURITY_CLASSIFICATION ( #36, ( #124 ) ) ;
#153 = ORIENTED_EDGE ( 'NONE', *, *, #58, .T. ) ;
#154 = PERSON_AND_ORGANIZATION_ROLE ( 'creator' ) ;
#155 = DESIGN_CONTEXT ( 'detailed design', #185, 'design' ) ;
#156 = CALENDAR_DATE ( 2021, 24, 11 ) ;
#157 = CC_DESIGN_PERSON_AND_ORGANIZATION_ASSIGNMENT ( #200, #104, ( #111 ) ) ;
#158 = PERSON_AND_ORGANIZATION ( #159, #116 ) ;
#159 = PERSON ( 'UNSPECIFIED', 'UNSPECIFIED', 'UNSPECIFIED', ('UNSPECIFIED'), ('UNSPECIFIED'), ('UNSPECIFIED') ) ;
#160 = PERSON_AND_ORGANIZATION_ROLE ( 'design_supplier' ) ;
#161 = APPROVAL_ROLE ( '' ) ;
#162 = DATE_AND_TIME ( #79, #179 ) ;
#163 = CC_DESIGN_DATE_AND_TIME_ASSIGNMENT ( #162, #3, ( #36 ) ) ;
#164 = AXIS2_PLACEMENT_3D ( 'NONE', #41, #25, #196 ) ;
#165 = CARTESIAN_POINT ( 'NONE',  ( 1.954557862536223490E-14, 2.499999999999995115, 5.598076211353449239 ) ) ;
#166 = AXIS2_PLACEMENT_3D ( 'NONE', #132, #183, #39 ) ;
#167 = CARTESIAN_POINT ( 'NONE',  ( 1.954557862536223490E-14, -6.855666113616943562E-16, 5.598076211353449239 ) ) ;
#168 = DIRECTION ( 'NONE',  ( 0.0000000000000000000, 1.000000000000000000, 0.0000000000000000000 ) ) ;
#169 = CARTESIAN_POINT ( 'NONE',  ( 1.990144363140586139E-13, -6.980486755139912911E-15, 57.00000000000000000 ) ) ;
#170 = DIRECTION ( 'NONE',  ( 4.275831445896958607E-31, 1.000000000000000000, 1.224646799147353207E-16 ) ) ;
#171 = DIRECTION ( 'NONE',  ( 4.275831445896959482E-31, 1.000000000000000000, 1.224646799147353207E-16 ) ) ;
#172 = DATE_AND_TIME ( #156, #127 ) ;
#173 = LOCAL_TIME ( 9, 31, 51.00000000000000000, #188 ) ;
#174 = APPROVAL_DATE_TIME ( #172, #119 ) ;
#175 = LOCAL_TIME ( 9, 31, 51.00000000000000000, #47 ) ;
#176 = VERTEX_POINT ( 'NONE', #165 ) ;
#177 = AXIS2_PLACEMENT_3D ( 'NONE', #113, #180, #146 ) ;
#178 = PLANE ( 'NONE',  #6 ) ;
#179 = LOCAL_TIME ( 9, 31, 51.00000000000000000, #140 ) ;
#180 = DIRECTION ( 'NONE',  ( 3.491481338843133355E-15, -1.224646799147353207E-16, 1.000000000000000000 ) ) ;
#181 = EDGE_LOOP ( 'NONE', ( #150 ) ) ;
#182 = EDGE_CURVE ( 'NONE', #21, #21, #194, .T. ) ;
#183 = DIRECTION ( 'NONE',  ( -3.491481338843133355E-15, 1.224646799147353207E-16, -1.000000000000000000 ) ) ;
#184 = FACE_BOUND ( 'NONE', #181, .T. ) ;
#185 = APPLICATION_CONTEXT ( 'configuration controlled 3d designs of mechanical parts and assemblies' ) ;
#186 = PLANE ( 'NONE',  #35 ) ;
#187 = ADVANCED_FACE ( 'NONE', ( #75, #125 ), #101, .T. ) ;
#188 = COORDINATED_UNIVERSAL_TIME_OFFSET ( 1, 0, .AHEAD. ) ;
#189 = CONICAL_SURFACE ( 'NONE', #141, 2.000000000000002220, 0.7853981633974479459 ) ;
#190 = CARTESIAN_POINT ( 'NONE',  ( 1.990144363140586139E-13, 1.999999999999995337, 57.00000000000000000 ) ) ;
#191 = VERTEX_POINT ( 'NONE', #112 ) ;
#192 = ADVANCED_BREP_SHAPE_REPRESENTATION ( '35506', ( #147, #145, #10 ), #121 ) ;
#193 = ADVANCED_FACE ( 'NONE', ( #59 ), #186, .F. ) ;
#194 = CIRCLE ( 'NONE', #203, 2.499999999999996003 ) ;
#195 = ORIENTED_EDGE ( 'NONE', *, *, #123, .F. ) ;
#196 = DIRECTION ( 'NONE',  ( 4.275831445896958607E-31, 1.000000000000000000, 1.224646799147353207E-16 ) ) ;
#197 = CARTESIAN_POINT ( 'NONE',  ( 1.972686956446370535E-13, -6.919254415182545337E-15, 56.50000000000000000 ) ) ;
#198 = APPROVAL ( #1, 'UNSPECIFIED' ) ;
#199 = DIRECTION ( 'NONE',  ( -3.491481338843133355E-15, 1.224646799147353207E-16, -1.000000000000000000 ) ) ;
#200 = PERSON_AND_ORGANIZATION ( #159, #116 ) ;
#201 = EDGE_LOOP ( 'NONE', ( #24 ) ) ;
#202 = DATE_AND_TIME ( #93, #54 ) ;
#203 = AXIS2_PLACEMENT_3D ( 'NONE', #167, #117, #61 ) ;
ENDSEC;
END-ISO-10303-21;
