ISO-10303-21;
HEADER;
FILE_DESCRIPTION (( 'STEP AP203' ),
    '1' );
FILE_NAME ('35505.step',
    '2021-11-24T08:31:51',
    ( '' ),
    ( '' ),
    'SwSTEP 2.0',
    'SolidWorks 2019',
    '' );
FILE_SCHEMA (( 'CONFIG_CONTROL_DESIGN' ));
ENDSEC;

DATA;
#1 = CC_DESIGN_PERSON_AND_ORGANIZATION_ASSIGNMENT ( #74, #164, ( #104 ) ) ;
#2 = ORIENTED_EDGE ( 'NONE', *, *, #50, .T. ) ;
#3 = FACE_BOUND ( 'NONE', #86, .T. ) ;
#4 = CIRCLE ( 'NONE', #111, 1.199999999999997291 ) ;
#5 = PLANE ( 'NONE',  #116 ) ;
#6 = CC_DESIGN_PERSON_AND_ORGANIZATION_ASSIGNMENT ( #177, #12, ( #19 ) ) ;
#7 = VERTEX_POINT ( 'NONE', #22 ) ;
#8 = CARTESIAN_POINT ( 'NONE',  ( 1.303038575024144102E-14, 1.499999999999992673, 3.732050807568951800 ) ) ;
#9 = PRODUCT_RELATED_PRODUCT_CATEGORY ( 'detail', '', ( #104 ) ) ;
#10 = CARTESIAN_POINT ( 'NONE',  ( -3.785471652766322713E-31, 0.5000000000000002220, -1.084202172485504434E-16 ) ) ;
#11 = DIRECTION ( 'NONE',  ( 3.491481338843133355E-15, -1.224646799147353207E-16, 1.000000000000000000 ) ) ;
#12 = PERSON_AND_ORGANIZATION_ROLE ( 'classification_officer' ) ;
#13 = LOCAL_TIME ( 9, 31, 51.00000000000000000, #96 ) ;
#14 = APPROVAL_DATE_TIME ( #141, #105 ) ;
#15 = AXIS2_PLACEMENT_3D ( 'NONE', #181, #54, #173 ) ;
#16 = FACE_OUTER_BOUND ( 'NONE', #34, .T. ) ;
#17 = ADVANCED_FACE ( 'NONE', ( #129 ), #5, .F. ) ;
#18 = EDGE_LOOP ( 'NONE', ( #82 ) ) ;
#19 = SECURITY_CLASSIFICATION ( '', '', #125 ) ;
#20 = EDGE_CURVE ( 'NONE', #7, #7, #4, .T. ) ;
#21 = CARTESIAN_POINT ( 'NONE',  ( 1.316288464743861212E-13, -4.616918432785521081E-15, 37.69999999999999574 ) ) ;
#22 = CARTESIAN_POINT ( 'NONE',  ( 1.326762908760390423E-13, 1.199999999999992628, 38.00000000000000000 ) ) ;
#23 = VERTEX_POINT ( 'NONE', #124 ) ;
#24 = CONICAL_SURFACE ( 'NONE', #81, 1.199999999999997291, 0.7853981633974453924 ) ;
#25 = VERTEX_POINT ( 'NONE', #10 ) ;
#26 = COORDINATED_UNIVERSAL_TIME_OFFSET ( 1, 0, .AHEAD. ) ;
#27 = AXIS2_PLACEMENT_3D ( 'NONE', #84, #179, #149 ) ;
#28 = CALENDAR_DATE ( 2021, 24, 11 ) ;
#29 = DATE_AND_TIME ( #28, #198 ) ;
#30 = CALENDAR_DATE ( 2021, 24, 11 ) ;
#31 = AXIS2_PLACEMENT_3D ( 'NONE', #154, #11, #36 ) ;
#32 = MANIFOLD_SOLID_BREP ( 'Corps-Déplacer/Copier1[2]', #168 ) ;
#33 = DIRECTION ( 'NONE',  ( 3.491481338843133355E-15, -1.224646799147353207E-16, 1.000000000000000000 ) ) ;
#34 = EDGE_LOOP ( 'NONE', ( #2 ) ) ;
#35 = VERTEX_POINT ( 'NONE', #68 ) ;
#36 = DIRECTION ( 'NONE',  ( -4.275831445896958607E-31, -1.000000000000000000, -1.224646799147353207E-16 ) ) ;
#37 = ADVANCED_FACE ( 'NONE', ( #16 ), #147, .F. ) ;
#38 = APPLICATION_CONTEXT ( 'configuration controlled 3d designs of mechanical parts and assemblies' ) ;
#39 = FACE_OUTER_BOUND ( 'NONE', #98, .T. ) ;
#40 = CC_DESIGN_APPROVAL ( #105, ( #120 ) ) ;
#41 = CC_DESIGN_DATE_AND_TIME_ASSIGNMENT ( #79, #138, ( #120 ) ) ;
#42 = DIRECTION ( 'NONE',  ( -3.491481338843133355E-15, 1.224646799147353207E-16, -1.000000000000000000 ) ) ;
#43 = DIRECTION ( 'NONE',  ( 1.000000000000000000, 0.0000000000000000000, 0.0000000000000000000 ) ) ;
#44 = DATE_AND_TIME ( #162, #150 ) ;
#45 = APPLICATION_CONTEXT ( 'configuration controlled 3d designs of mechanical parts and assemblies' ) ;
#46 = PERSON_AND_ORGANIZATION ( #140, #77 ) ;
#47 = DIRECTION ( 'NONE',  ( 0.0000000000000000000, 1.000000000000000000, 0.0000000000000000000 ) ) ;
#48 = CARTESIAN_POINT ( 'NONE',  ( -2.961693687857401665E-31, 1.038822305746954334E-32, -8.482627860295907037E-17 ) ) ;
#49 = AXIS2_PLACEMENT_3D ( 'NONE', #200, #114, #43 ) ;
#50 = EDGE_CURVE ( 'NONE', #25, #25, #123, .T. ) ;
#51 = EDGE_LOOP ( 'NONE', ( #83 ) ) ;
#52 = CARTESIAN_POINT ( 'NONE',  ( 1.326762908760390423E-13, 8.998558695971058066E-33, 38.00000000000000000 ) ) ;
#53 = DIRECTION ( 'NONE',  ( -4.275831445896958607E-31, -1.000000000000000000, -1.224646799147353207E-16 ) ) ;
#54 = DIRECTION ( 'NONE',  ( 3.491481338843133355E-15, -1.224646799147353207E-16, 1.000000000000000000 ) ) ;
#55 =( NAMED_UNIT ( * ) SI_UNIT ( $, .STERADIAN. ) SOLID_ANGLE_UNIT ( ) );
#56 = CC_DESIGN_APPROVAL ( #161, ( #182 ) ) ;
#57 = EDGE_CURVE ( 'NONE', #23, #23, #190, .T. ) ;
#58 = CARTESIAN_POINT ( 'NONE',  ( 1.303038575024144102E-14, -4.570444075744611949E-16, 3.732050807568951800 ) ) ;
#59 = CALENDAR_DATE ( 2021, 24, 11 ) ;
#60 = PERSON_AND_ORGANIZATION ( #140, #77 ) ;
#61 = PERSON_AND_ORGANIZATION ( #140, #77 ) ;
#62 = COORDINATED_UNIVERSAL_TIME_OFFSET ( 1, 0, .AHEAD. ) ;
#63 = ORIENTED_EDGE ( 'NONE', *, *, #57, .F. ) ;
#64 = ORIENTED_EDGE ( 'NONE', *, *, #57, .T. ) ;
#65 = EDGE_LOOP ( 'NONE', ( #191 ) ) ;
#66 = DIRECTION ( 'NONE',  ( -3.491481338843133355E-15, 1.224646799147353207E-16, -1.000000000000000000 ) ) ;
#67 = CC_DESIGN_PERSON_AND_ORGANIZATION_ASSIGNMENT ( #61, #93, ( #182 ) ) ;
#68 = CARTESIAN_POINT ( 'NONE',  ( 1.316288464743861212E-13, 1.499999999999992673, 37.69999999999999574 ) ) ;
#69 = FACE_OUTER_BOUND ( 'NONE', #131, .T. ) ;
#70 = CARTESIAN_POINT ( 'NONE',  ( 1.303038575024144102E-14, 1.124819836996387322E-32, 3.732050807568951800 ) ) ;
#71 = ADVANCED_FACE ( 'NONE', ( #3, #199 ), #157, .T. ) ;
#72 = DIRECTION ( 'NONE',  ( 0.0000000000000000000, 1.000000000000000000, 0.0000000000000000000 ) ) ;
#73 = CLOSED_SHELL ( 'NONE', ( #91, #186, #112, #17 ) ) ;
#74 = PERSON_AND_ORGANIZATION ( #140, #77 ) ;
#75 = ADVANCED_FACE ( 'NONE', ( #110 ), #180, .T. ) ;
#76 = SHAPE_DEFINITION_REPRESENTATION ( #159, #121 ) ;
#77 = ORGANIZATION ( 'UNSPECIFIED', 'UNSPECIFIED', '' ) ;
#78 = APPROVAL_ROLE ( '' ) ;
#79 = DATE_AND_TIME ( #59, #163 ) ;
#80 = CARTESIAN_POINT ( 'NONE',  ( 1.326762908760390423E-13, -4.653657836759941941E-15, 38.00000000000000000 ) ) ;
#81 = AXIS2_PLACEMENT_3D ( 'NONE', #156, #42, #135 ) ;
#82 = ORIENTED_EDGE ( 'NONE', *, *, #188, .T. ) ;
#83 = ORIENTED_EDGE ( 'NONE', *, *, #188, .F. ) ;
#84 = CARTESIAN_POINT ( 'NONE',  ( 1.303038575024144102E-14, -4.570444075744611949E-16, 3.732050807568951800 ) ) ;
#85 = APPROVAL_PERSON_ORGANIZATION ( #46, #102, #174 ) ;
#86 = EDGE_LOOP ( 'NONE', ( #119 ) ) ;
#87 =( GEOMETRIC_REPRESENTATION_CONTEXT ( 3 ) GLOBAL_UNCERTAINTY_ASSIGNED_CONTEXT ( ( #145 ) ) GLOBAL_UNIT_ASSIGNED_CONTEXT ( ( #133, #171, #55 ) ) REPRESENTATION_CONTEXT ( 'NONE', 'WORKASPACE' ) );
#88 = EDGE_CURVE ( 'NONE', #35, #35, #100, .T. ) ;
#89 = FACE_BOUND ( 'NONE', #65, .T. ) ;
#90 = PERSON_AND_ORGANIZATION ( #140, #77 ) ;
#91 = ADVANCED_FACE ( 'NONE', ( #103 ), #169, .F. ) ;
#92 = CALENDAR_DATE ( 2021, 24, 11 ) ;
#93 = PERSON_AND_ORGANIZATION_ROLE ( 'design_supplier' ) ;
#94 = APPROVAL_PERSON_ORGANIZATION ( #128, #161, #78 ) ;
#95 = AXIS2_PLACEMENT_3D ( 'NONE', #117, #130, #192 ) ;
#96 = COORDINATED_UNIVERSAL_TIME_OFFSET ( 1, 0, .AHEAD. ) ;
#97 = ORIENTED_EDGE ( 'NONE', *, *, #20, .F. ) ;
#98 = EDGE_LOOP ( 'NONE', ( #63 ) ) ;
#99 = ORIENTED_EDGE ( 'NONE', *, *, #88, .F. ) ;
#100 = CIRCLE ( 'NONE', #106, 1.499999999999997113 ) ;
#101 = DIRECTION ( 'NONE',  ( 4.275831445896958607E-31, 1.000000000000000000, 1.224646799147353207E-16 ) ) ;
#102 = APPROVAL ( #176, 'UNSPECIFIED' ) ;
#103 = FACE_OUTER_BOUND ( 'NONE', #143, .T. ) ;
#104 = PRODUCT ( '35505', '35505', '', ( #113 ) ) ;
#105 = APPROVAL ( #185, 'UNSPECIFIED' ) ;
#106 = AXIS2_PLACEMENT_3D ( 'NONE', #21, #155, #72 ) ;
#107 = DIRECTION ( 'NONE',  ( 3.491481338843133355E-15, -1.224646799147353207E-16, 1.000000000000000000 ) ) ;
#108 = CC_DESIGN_SECURITY_CLASSIFICATION ( #19, ( #182 ) ) ;
#109 = CIRCLE ( 'NONE', #196, 1.499999999999993117 ) ;
#110 = FACE_OUTER_BOUND ( 'NONE', #51, .T. ) ;
#111 = AXIS2_PLACEMENT_3D ( 'NONE', #80, #166, #47 ) ;
#112 = ADVANCED_FACE ( 'NONE', ( #134, #89 ), #24, .T. ) ;
#113 = MECHANICAL_CONTEXT ( 'NONE', #45, 'mechanical' ) ;
#114 = DIRECTION ( 'NONE',  ( 0.0000000000000000000, 0.0000000000000000000, 1.000000000000000000 ) ) ;
#115 = CC_DESIGN_APPROVAL ( #102, ( #19 ) ) ;
#116 = AXIS2_PLACEMENT_3D ( 'NONE', #52, #118, #101 ) ;
#117 = CARTESIAN_POINT ( 'NONE',  ( -5.923387375714803330E-31, 2.077644611493908669E-32, -1.696525572059181407E-16 ) ) ;
#118 = DIRECTION ( 'NONE',  ( -3.491481338843133355E-15, 1.224646799147353207E-16, -1.000000000000000000 ) ) ;
#119 = ORIENTED_EDGE ( 'NONE', *, *, #50, .F. ) ;
#120 = PRODUCT_DEFINITION ( 'UNKNOWN', '', #182, #165 ) ;
#121 = ADVANCED_BREP_SHAPE_REPRESENTATION ( '35505', ( #170, #32, #49 ), #87 ) ;
#122 = DIRECTION ( 'NONE',  ( 0.0000000000000000000, 1.000000000000000000, 0.0000000000000000000 ) ) ;
#123 = CIRCLE ( 'NONE', #95, 0.5000000000000002220 ) ;
#124 = CARTESIAN_POINT ( 'NONE',  ( 1.303038575024144102E-14, 1.499999999999992673, 3.732050807568951800 ) ) ;
#125 = SECURITY_CLASSIFICATION_LEVEL ( 'unclassified' ) ;
#126 = PERSON_AND_ORGANIZATION_ROLE ( 'creator' ) ;
#127 = APPROVAL_STATUS ( 'not_yet_approved' ) ;
#128 = PERSON_AND_ORGANIZATION ( #140, #77 ) ;
#129 = FACE_OUTER_BOUND ( 'NONE', #148, .T. ) ;
#130 = DIRECTION ( 'NONE',  ( -3.491481338843133355E-15, 1.224646799147353207E-16, -1.000000000000000000 ) ) ;
#131 = EDGE_LOOP ( 'NONE', ( #151 ) ) ;
#132 = DIRECTION ( 'NONE',  ( 4.275831445896958607E-31, 1.000000000000000000, 1.224646799147353207E-16 ) ) ;
#133 =( LENGTH_UNIT ( ) NAMED_UNIT ( * ) SI_UNIT ( .MILLI., .METRE. ) );
#134 = FACE_OUTER_BOUND ( 'NONE', #194, .T. ) ;
#135 = DIRECTION ( 'NONE',  ( 0.0000000000000000000, 1.000000000000000000, 0.0000000000000000000 ) ) ;
#136 = CC_DESIGN_DATE_AND_TIME_ASSIGNMENT ( #203, #189, ( #19 ) ) ;
#137 = APPROVAL_ROLE ( '' ) ;
#138 = DATE_TIME_ROLE ( 'creation_date' ) ;
#139 = CC_DESIGN_PERSON_AND_ORGANIZATION_ASSIGNMENT ( #90, #160, ( #120 ) ) ;
#140 = PERSON ( 'UNSPECIFIED', 'UNSPECIFIED', 'UNSPECIFIED', ('UNSPECIFIED'), ('UNSPECIFIED'), ('UNSPECIFIED') ) ;
#141 = DATE_AND_TIME ( #92, #13 ) ;
#142 = COORDINATED_UNIVERSAL_TIME_OFFSET ( 1, 0, .AHEAD. ) ;
#143 = EDGE_LOOP ( 'NONE', ( #64 ) ) ;
#144 = AXIS2_PLACEMENT_3D ( 'NONE', #70, #107, #53 ) ;
#145 = UNCERTAINTY_MEASURE_WITH_UNIT (LENGTH_MEASURE( 1.000000000000000082E-05 ), #133, 'distance_accuracy_value', 'NONE');
#146 = CC_DESIGN_PERSON_AND_ORGANIZATION_ASSIGNMENT ( #60, #126, ( #182 ) ) ;
#147 = PLANE ( 'NONE',  #183 ) ;
#148 = EDGE_LOOP ( 'NONE', ( #97 ) ) ;
#149 = DIRECTION ( 'NONE',  ( 0.0000000000000000000, 1.000000000000000000, 0.0000000000000000000 ) ) ;
#150 = LOCAL_TIME ( 9, 31, 51.00000000000000000, #187 ) ;
#151 = ORIENTED_EDGE ( 'NONE', *, *, #88, .T. ) ;
#152 = CARTESIAN_POINT ( 'NONE',  ( 0.0000000000000000000, 0.0000000000000000000, 0.0000000000000000000 ) ) ;
#153 = VERTEX_POINT ( 'NONE', #8 ) ;
#154 = CARTESIAN_POINT ( 'NONE',  ( 1.303038575024144102E-14, 1.124819836996387322E-32, 3.732050807568951800 ) ) ;
#155 = DIRECTION ( 'NONE',  ( -3.491481338843133355E-15, 1.224646799147353207E-16, -1.000000000000000000 ) ) ;
#156 = CARTESIAN_POINT ( 'NONE',  ( 1.326762908760390423E-13, -4.653657836759941941E-15, 38.00000000000000000 ) ) ;
#157 = CONICAL_SURFACE ( 'NONE', #15, 1.499999999999993117, 0.2617993877991426910 ) ;
#158 = APPROVAL_DATE_TIME ( #29, #102 ) ;
#159 = PRODUCT_DEFINITION_SHAPE ( 'NONE', 'NONE',  #120 ) ;
#160 = PERSON_AND_ORGANIZATION_ROLE ( 'creator' ) ;
#161 = APPROVAL ( #127, 'UNSPECIFIED' ) ;
#162 = CALENDAR_DATE ( 2021, 24, 11 ) ;
#163 = LOCAL_TIME ( 9, 31, 51.00000000000000000, #62 ) ;
#164 = PERSON_AND_ORGANIZATION_ROLE ( 'design_owner' ) ;
#165 = DESIGN_CONTEXT ( 'detailed design', #38, 'design' ) ;
#166 = DIRECTION ( 'NONE',  ( -3.491481338843133355E-15, 1.224646799147353207E-16, -1.000000000000000000 ) ) ;
#167 = DIRECTION ( 'NONE',  ( -4.275831445896958607E-31, -1.000000000000000000, -1.224646799147353207E-16 ) ) ;
#168 = CLOSED_SHELL ( 'NONE', ( #37, #71, #75 ) ) ;
#169 = PLANE ( 'NONE',  #144 ) ;
#170 = MANIFOLD_SOLID_BREP ( 'Corps-Déplacer/Copier1[1]', #73 ) ;
#171 =( NAMED_UNIT ( * ) PLANE_ANGLE_UNIT ( ) SI_UNIT ( $, .RADIAN. ) );
#172 = AXIS2_PLACEMENT_3D ( 'NONE', #152, #66, #132 ) ;
#173 = DIRECTION ( 'NONE',  ( 0.0000000000000000000, -1.000000000000000000, 0.0000000000000000000 ) ) ;
#174 = APPROVAL_ROLE ( '' ) ;
#175 = APPLICATION_PROTOCOL_DEFINITION ( 'international standard', 'config_control_design', 1994, #38 ) ;
#176 = APPROVAL_STATUS ( 'not_yet_approved' ) ;
#177 = PERSON_AND_ORGANIZATION ( #140, #77 ) ;
#178 = LOCAL_TIME ( 9, 31, 51.00000000000000000, #142 ) ;
#179 = DIRECTION ( 'NONE',  ( -3.491481338843133355E-15, 1.224646799147353207E-16, -1.000000000000000000 ) ) ;
#180 = PLANE ( 'NONE',  #31 ) ;
#181 = CARTESIAN_POINT ( 'NONE',  ( 1.303038575024144102E-14, -4.570444075744611949E-16, 3.732050807568951800 ) ) ;
#182 = PRODUCT_DEFINITION_FORMATION_WITH_SPECIFIED_SOURCE ( 'ANY', '', #104, .NOT_KNOWN. ) ;
#183 = AXIS2_PLACEMENT_3D ( 'NONE', #48, #33, #167 ) ;
#184 = APPLICATION_PROTOCOL_DEFINITION ( 'international standard', 'config_control_design', 1994, #45 ) ;
#185 = APPROVAL_STATUS ( 'not_yet_approved' ) ;
#186 = ADVANCED_FACE ( 'NONE', ( #39, #69 ), #197, .T. ) ;
#187 = COORDINATED_UNIVERSAL_TIME_OFFSET ( 1, 0, .AHEAD. ) ;
#188 = EDGE_CURVE ( 'NONE', #153, #153, #109, .T. ) ;
#189 = DATE_TIME_ROLE ( 'classification_date' ) ;
#190 = CIRCLE ( 'NONE', #27, 1.499999999999993117 ) ;
#191 = ORIENTED_EDGE ( 'NONE', *, *, #20, .T. ) ;
#192 = DIRECTION ( 'NONE',  ( 4.275831445896958607E-31, 1.000000000000000000, 1.224646799147353454E-16 ) ) ;
#193 = APPROVAL_PERSON_ORGANIZATION ( #201, #105, #137 ) ;
#194 = EDGE_LOOP ( 'NONE', ( #99 ) ) ;
#195 = DIRECTION ( 'NONE',  ( -3.491481338843133355E-15, 1.224646799147353207E-16, -1.000000000000000000 ) ) ;
#196 = AXIS2_PLACEMENT_3D ( 'NONE', #58, #195, #122 ) ;
#197 = CYLINDRICAL_SURFACE ( 'NONE', #172, 1.499999999999995337 ) ;
#198 = LOCAL_TIME ( 9, 31, 51.00000000000000000, #26 ) ;
#199 = FACE_OUTER_BOUND ( 'NONE', #18, .T. ) ;
#200 = CARTESIAN_POINT ( 'NONE',  ( 0.0000000000000000000, 0.0000000000000000000, 0.0000000000000000000 ) ) ;
#201 = PERSON_AND_ORGANIZATION ( #140, #77 ) ;
#202 = APPROVAL_DATE_TIME ( #44, #161 ) ;
#203 = DATE_AND_TIME ( #30, #178 ) ;
ENDSEC;
END-ISO-10303-21;
