ISO-10303-21;
HEADER;
FILE_DESCRIPTION (( 'STEP AP203' ),
    '1' );
FILE_NAME ('35450.step',
    '2021-12-06T12:59:11',
    ( '' ),
    ( '' ),
    'SwSTEP 2.0',
    'SolidWorks 2019',
    '' );
FILE_SCHEMA (( 'CONFIG_CONTROL_DESIGN' ));
ENDSEC;

DATA;
#1 = DESIGN_CONTEXT ( 'detailed design', #53, 'design' ) ;
#2 = AXIS2_PLACEMENT_3D ( 'NONE', #54, #48, #167 ) ;
#3 = FACE_OUTER_BOUND ( 'NONE', #44, .T. ) ;
#4 = DIRECTION ( 'NONE',  ( 8.551662891793915243E-32, 1.000000000000000000, 2.449293598294705921E-17 ) ) ;
#5 = DIRECTION ( 'NONE',  ( 8.551662891793915243E-32, 1.000000000000000000, 2.449293598294706229E-17 ) ) ;
#6 = DIRECTION ( 'NONE',  ( -3.491481338843133355E-15, 2.449293598294705921E-17, -1.000000000000000000 ) ) ;
#7 = APPROVAL_ROLE ( '' ) ;
#8 = CC_DESIGN_PERSON_AND_ORGANIZATION_ASSIGNMENT ( #166, #83, ( #28 ) ) ;
#9 = PERSON_AND_ORGANIZATION ( #10, #42 ) ;
#10 = PERSON ( 'UNSPECIFIED', 'UNSPECIFIED', 'UNSPECIFIED', ('UNSPECIFIED'), ('UNSPECIFIED'), ('UNSPECIFIED') ) ;
#11 = PERSON_AND_ORGANIZATION ( #10, #42 ) ;
#12 = COORDINATED_UNIVERSAL_TIME_OFFSET ( 1, 0, .AHEAD. ) ;
#13 = CC_DESIGN_PERSON_AND_ORGANIZATION_ASSIGNMENT ( #156, #39, ( #109 ) ) ;
#14 = PERSON_AND_ORGANIZATION_ROLE ( 'creator' ) ;
#15 = LOCAL_TIME ( 13, 59, 11.00000000000000000, #64 ) ;
#16 = AXIS2_PLACEMENT_3D ( 'NONE', #125, #21, #139 ) ;
#17 = ORIENTED_EDGE ( 'NONE', *, *, #134, .T. ) ;
#18 = FACE_OUTER_BOUND ( 'NONE', #75, .T. ) ;
#19 = EDGE_LOOP ( 'NONE', ( #161 ) ) ;
#20 = FACE_OUTER_BOUND ( 'NONE', #150, .T. ) ;
#21 = DIRECTION ( 'NONE',  ( 3.491481338843133355E-15, -2.449293598294705921E-17, 1.000000000000000000 ) ) ;
#22 = CC_DESIGN_SECURITY_CLASSIFICATION ( #28, ( #79 ) ) ;
#23 = FACE_OUTER_BOUND ( 'NONE', #101, .T. ) ;
#24 = DATE_TIME_ROLE ( 'creation_date' ) ;
#25 = DATE_AND_TIME ( #142, #169 ) ;
#26 = COORDINATED_UNIVERSAL_TIME_OFFSET ( 1, 0, .AHEAD. ) ;
#27 = APPROVAL_DATE_TIME ( #25, #46 ) ;
#28 = SECURITY_CLASSIFICATION ( '', '', #154 ) ;
#29 = ADVANCED_FACE ( 'NONE', ( #105, #23 ), #138, .T. ) ;
#30 =( NAMED_UNIT ( * ) SI_UNIT ( $, .STERADIAN. ) SOLID_ANGLE_UNIT ( ) );
#31 = DIRECTION ( 'NONE',  ( -3.491481338843133355E-15, 2.449293598294705921E-17, -1.000000000000000000 ) ) ;
#32 = LOCAL_TIME ( 13, 59, 11.00000000000000000, #112 ) ;
#33 = VERTEX_POINT ( 'NONE', #88 ) ;
#34 = EDGE_LOOP ( 'NONE', ( #146 ) ) ;
#35 = CARTESIAN_POINT ( 'NONE',  ( 5.237222008264699244E-15, -3.673940397442058882E-17, 1.499999999999999778 ) ) ;
#36 = APPROVAL_ROLE ( '' ) ;
#37 = CC_DESIGN_PERSON_AND_ORGANIZATION_ASSIGNMENT ( #132, #14, ( #79 ) ) ;
#38 = LOCAL_TIME ( 13, 59, 11.00000000000000000, #107 ) ;
#39 = PERSON_AND_ORGANIZATION_ROLE ( 'creator' ) ;
#40 = CALENDAR_DATE ( 2021, 6, 12 ) ;
#41 = EDGE_CURVE ( 'NONE', #116, #116, #145, .T. ) ;
#42 = ORGANIZATION ( 'UNSPECIFIED', 'UNSPECIFIED', '' ) ;
#43 = APPLICATION_CONTEXT ( 'configuration controlled 3d designs of mechanical parts and assemblies' ) ;
#44 = EDGE_LOOP ( 'NONE', ( #73 ) ) ;
#45 = CARTESIAN_POINT ( 'NONE',  ( 5.237222008264700033E-15, 12.50000000000000000, 1.500000000000000000 ) ) ;
#46 = APPROVAL ( #81, 'UNSPECIFIED' ) ;
#47 = VERTEX_POINT ( 'NONE', #153 ) ;
#48 = DIRECTION ( 'NONE',  ( 0.0000000000000000000, 0.0000000000000000000, 1.000000000000000000 ) ) ;
#49 = AXIS2_PLACEMENT_3D ( 'NONE', #163, #31, #5 ) ;
#50 = APPROVAL_DATE_TIME ( #164, #67 ) ;
#51 = DATE_TIME_ROLE ( 'classification_date' ) ;
#52 = APPLICATION_PROTOCOL_DEFINITION ( 'international standard', 'config_control_design', 1994, #53 ) ;
#53 = APPLICATION_CONTEXT ( 'configuration controlled 3d designs of mechanical parts and assemblies' ) ;
#54 = CARTESIAN_POINT ( 'NONE',  ( 0.0000000000000000000, 0.0000000000000000000, 0.0000000000000000000 ) ) ;
#55 = AXIS2_PLACEMENT_3D ( 'NONE', #78, #63, #152 ) ;
#56 = EDGE_CURVE ( 'NONE', #103, #103, #144, .T. ) ;
#57 = CARTESIAN_POINT ( 'NONE',  ( 0.0000000000000000000, 0.0000000000000000000, 0.0000000000000000000 ) ) ;
#58 = PRODUCT ( '35450', '35450', '', ( #95 ) ) ;
#59 = CYLINDRICAL_SURFACE ( 'NONE', #148, 4.000000000000000000 ) ;
#60 = DIRECTION ( 'NONE',  ( 8.551662891793915243E-32, 1.000000000000000000, 2.449293598294706229E-17 ) ) ;
#61 =( LENGTH_UNIT ( ) NAMED_UNIT ( * ) SI_UNIT ( .MILLI., .METRE. ) );
#62 = AXIS2_PLACEMENT_3D ( 'NONE', #127, #6, #89 ) ;
#63 = DIRECTION ( 'NONE',  ( -3.491481338843133355E-15, 2.449293598294705921E-17, -1.000000000000000000 ) ) ;
#64 = COORDINATED_UNIVERSAL_TIME_OFFSET ( 1, 0, .AHEAD. ) ;
#65 = PERSON_AND_ORGANIZATION ( #10, #42 ) ;
#66 = LOCAL_TIME ( 13, 59, 11.00000000000000000, #12 ) ;
#67 = APPROVAL ( #155, 'UNSPECIFIED' ) ;
#68 = PERSON_AND_ORGANIZATION_ROLE ( 'design_supplier' ) ;
#69 = APPLICATION_PROTOCOL_DEFINITION ( 'international standard', 'config_control_design', 1994, #43 ) ;
#70 = PERSON_AND_ORGANIZATION ( #10, #42 ) ;
#71 = CC_DESIGN_APPROVAL ( #129, ( #109 ) ) ;
#72 = ADVANCED_FACE ( 'NONE', ( #124, #130 ), #106, .T. ) ;
#73 = ORIENTED_EDGE ( 'NONE', *, *, #134, .F. ) ;
#74 = EDGE_LOOP ( 'NONE', ( #80 ) ) ;
#75 = EDGE_LOOP ( 'NONE', ( #114 ) ) ;
#76 = PRODUCT_RELATED_PRODUCT_CATEGORY ( 'detail', '', ( #58 ) ) ;
#77 = DIRECTION ( 'NONE',  ( 8.551662891793915243E-32, 1.000000000000000000, 2.449293598294705921E-17 ) ) ;
#78 = CARTESIAN_POINT ( 'NONE',  ( 5.237222008264700033E-15, -3.673940397442058882E-17, 1.500000000000000000 ) ) ;
#79 = PRODUCT_DEFINITION_FORMATION_WITH_SPECIFIED_SOURCE ( 'ANY', '', #58, .NOT_KNOWN. ) ;
#80 = ORIENTED_EDGE ( 'NONE', *, *, #97, .T. ) ;
#81 = APPROVAL_STATUS ( 'not_yet_approved' ) ;
#82 = ADVANCED_FACE ( 'NONE', ( #147, #20 ), #59, .F. ) ;
#83 = PERSON_AND_ORGANIZATION_ROLE ( 'classification_officer' ) ;
#84 = CIRCLE ( 'NONE', #49, 12.50000000000000000 ) ;
#85 = CARTESIAN_POINT ( 'NONE',  ( 5.237222008264700033E-15, 4.000000000000000000, 1.500000000000000000 ) ) ;
#86 = ORIENTED_EDGE ( 'NONE', *, *, #41, .F. ) ;
#87 = AXIS2_PLACEMENT_3D ( 'NONE', #102, #90, #4 ) ;
#88 = CARTESIAN_POINT ( 'NONE',  ( 0.0000000000000000000, 12.50000000000000000, 0.0000000000000000000 ) ) ;
#89 = DIRECTION ( 'NONE',  ( 8.551662891793915243E-32, 1.000000000000000000, 2.449293598294705921E-17 ) ) ;
#90 = DIRECTION ( 'NONE',  ( -3.491481338843133355E-15, 2.449293598294705921E-17, -1.000000000000000000 ) ) ;
#91 = DATE_AND_TIME ( #94, #38 ) ;
#92 = CC_DESIGN_PERSON_AND_ORGANIZATION_ASSIGNMENT ( #11, #118, ( #58 ) ) ;
#93 = CALENDAR_DATE ( 2021, 6, 12 ) ;
#94 = CALENDAR_DATE ( 2021, 6, 12 ) ;
#95 = MECHANICAL_CONTEXT ( 'NONE', #43, 'mechanical' ) ;
#96 = UNCERTAINTY_MEASURE_WITH_UNIT (LENGTH_MEASURE( 1.000000000000000082E-05 ), #61, 'distance_accuracy_value', 'NONE');
#97 = EDGE_CURVE ( 'NONE', #47, #47, #135, .T. ) ;
#98 = CC_DESIGN_PERSON_AND_ORGANIZATION_ASSIGNMENT ( #70, #68, ( #79 ) ) ;
#99 = CC_DESIGN_APPROVAL ( #67, ( #28 ) ) ;
#100 = ORIENTED_EDGE ( 'NONE', *, *, #56, .F. ) ;
#101 = EDGE_LOOP ( 'NONE', ( #86 ) ) ;
#102 = CARTESIAN_POINT ( 'NONE',  ( -3.634456729012414115E-31, 4.000000000000000000, -1.040949779275250017E-16 ) ) ;
#103 = VERTEX_POINT ( 'NONE', #85 ) ;
#104 = APPROVAL_PERSON_ORGANIZATION ( #65, #46, #36 ) ;
#105 = FACE_BOUND ( 'NONE', #19, .T. ) ;
#106 = PLANE ( 'NONE',  #87 ) ;
#107 = COORDINATED_UNIVERSAL_TIME_OFFSET ( 1, 0, .AHEAD. ) ;
#108 = SHAPE_DEFINITION_REPRESENTATION ( #158, #126 ) ;
#109 = PRODUCT_DEFINITION ( 'UNKNOWN', '', #79, #1 ) ;
#110 = APPROVAL_DATE_TIME ( #143, #129 ) ;
#111 = APPROVAL_PERSON_ORGANIZATION ( #9, #129, #165 ) ;
#112 = COORDINATED_UNIVERSAL_TIME_OFFSET ( 1, 0, .AHEAD. ) ;
#113 = APPROVAL_PERSON_ORGANIZATION ( #168, #67, #7 ) ;
#114 = ORIENTED_EDGE ( 'NONE', *, *, #41, .T. ) ;
#115 = DIRECTION ( 'NONE',  ( 6.162975822039154730E-32, 1.000000000000000000, 1.734723475976807094E-17 ) ) ;
#116 = VERTEX_POINT ( 'NONE', #45 ) ;
#117 = DIRECTION ( 'NONE',  ( -3.491481338843133355E-15, 2.449293598294705921E-17, -1.000000000000000000 ) ) ;
#118 = PERSON_AND_ORGANIZATION_ROLE ( 'design_owner' ) ;
#119 = AXIS2_PLACEMENT_3D ( 'NONE', #57, #160, #60 ) ;
#120 = DATE_AND_TIME ( #131, #15 ) ;
#121 = CC_DESIGN_APPROVAL ( #46, ( #79 ) ) ;
#122 = CLOSED_SHELL ( 'NONE', ( #72, #137, #29, #82 ) ) ;
#123 = AXIS2_PLACEMENT_3D ( 'NONE', #35, #136, #115 ) ;
#124 = FACE_OUTER_BOUND ( 'NONE', #140, .T. ) ;
#125 = CARTESIAN_POINT ( 'NONE',  ( 5.237222008264700033E-15, 4.000000000000000000, 1.500000000000000000 ) ) ;
#126 = ADVANCED_BREP_SHAPE_REPRESENTATION ( '35450', ( #133, #2 ), #141 ) ;
#127 = CARTESIAN_POINT ( 'NONE',  ( -3.420665156717566097E-31, 2.399615652258971215E-33, -9.797174393178823685E-17 ) ) ;
#128 = CARTESIAN_POINT ( 'NONE',  ( 0.0000000000000000000, 0.0000000000000000000, 0.0000000000000000000 ) ) ;
#129 = APPROVAL ( #157, 'UNSPECIFIED' ) ;
#130 = FACE_BOUND ( 'NONE', #34, .T. ) ;
#131 = CALENDAR_DATE ( 2021, 6, 12 ) ;
#132 = PERSON_AND_ORGANIZATION ( #10, #42 ) ;
#133 = MANIFOLD_SOLID_BREP ( 'Corps-Déplacer/Copier1', #122 ) ;
#134 = EDGE_CURVE ( 'NONE', #33, #33, #84, .T. ) ;
#135 = CIRCLE ( 'NONE', #62, 4.000000000000000000 ) ;
#136 = DIRECTION ( 'NONE',  ( -3.491481338843133355E-15, 2.449293598294705921E-17, -1.000000000000000000 ) ) ;
#137 = ADVANCED_FACE ( 'NONE', ( #18, #3 ), #149, .T. ) ;
#138 = PLANE ( 'NONE',  #16 ) ;
#139 = DIRECTION ( 'NONE',  ( -8.551662891793915243E-32, -1.000000000000000000, -2.449293598294705921E-17 ) ) ;
#140 = EDGE_LOOP ( 'NONE', ( #17 ) ) ;
#141 =( GEOMETRIC_REPRESENTATION_CONTEXT ( 3 ) GLOBAL_UNCERTAINTY_ASSIGNED_CONTEXT ( ( #96 ) ) GLOBAL_UNIT_ASSIGNED_CONTEXT ( ( #61, #162, #30 ) ) REPRESENTATION_CONTEXT ( 'NONE', 'WORKASPACE' ) );
#142 = CALENDAR_DATE ( 2021, 6, 12 ) ;
#143 = DATE_AND_TIME ( #93, #66 ) ;
#144 = CIRCLE ( 'NONE', #55, 4.000000000000000000 ) ;
#145 = CIRCLE ( 'NONE', #123, 12.50000000000000000 ) ;
#146 = ORIENTED_EDGE ( 'NONE', *, *, #97, .F. ) ;
#147 = FACE_OUTER_BOUND ( 'NONE', #74, .T. ) ;
#148 = AXIS2_PLACEMENT_3D ( 'NONE', #128, #117, #77 ) ;
#149 = CYLINDRICAL_SURFACE ( 'NONE', #119, 12.50000000000000000 ) ;
#150 = EDGE_LOOP ( 'NONE', ( #100 ) ) ;
#151 = CC_DESIGN_DATE_AND_TIME_ASSIGNMENT ( #91, #24, ( #109 ) ) ;
#152 = DIRECTION ( 'NONE',  ( 0.0000000000000000000, 1.000000000000000000, 0.0000000000000000000 ) ) ;
#153 = CARTESIAN_POINT ( 'NONE',  ( 0.0000000000000000000, 4.000000000000000000, 0.0000000000000000000 ) ) ;
#154 = SECURITY_CLASSIFICATION_LEVEL ( 'unclassified' ) ;
#155 = APPROVAL_STATUS ( 'not_yet_approved' ) ;
#156 = PERSON_AND_ORGANIZATION ( #10, #42 ) ;
#157 = APPROVAL_STATUS ( 'not_yet_approved' ) ;
#158 = PRODUCT_DEFINITION_SHAPE ( 'NONE', 'NONE',  #109 ) ;
#159 = CC_DESIGN_DATE_AND_TIME_ASSIGNMENT ( #120, #51, ( #28 ) ) ;
#160 = DIRECTION ( 'NONE',  ( -3.491481338843133355E-15, 2.449293598294705921E-17, -1.000000000000000000 ) ) ;
#161 = ORIENTED_EDGE ( 'NONE', *, *, #56, .T. ) ;
#162 =( NAMED_UNIT ( * ) PLANE_ANGLE_UNIT ( ) SI_UNIT ( $, .RADIAN. ) );
#163 = CARTESIAN_POINT ( 'NONE',  ( -1.068957861474239389E-30, 7.498798913309285302E-33, -3.061616997868382648E-16 ) ) ;
#164 = DATE_AND_TIME ( #40, #32 ) ;
#165 = APPROVAL_ROLE ( '' ) ;
#166 = PERSON_AND_ORGANIZATION ( #10, #42 ) ;
#167 = DIRECTION ( 'NONE',  ( 1.000000000000000000, 0.0000000000000000000, 0.0000000000000000000 ) ) ;
#168 = PERSON_AND_ORGANIZATION ( #10, #42 ) ;
#169 = LOCAL_TIME ( 13, 59, 11.00000000000000000, #26 ) ;
ENDSEC;
END-ISO-10303-21;
