ISO-10303-21;
HEADER;
FILE_DESCRIPTION (( 'STEP AP203' ),
    '1' );
FILE_NAME ('35444.step',
    '2021-12-06T12:59:11',
    ( '' ),
    ( '' ),
    'SwSTEP 2.0',
    'SolidWorks 2019',
    '' );
FILE_SCHEMA (( 'CONFIG_CONTROL_DESIGN' ));
ENDSEC;

DATA;
#1 = AXIS2_PLACEMENT_3D ( 'NONE', #119, #156, #90 ) ;
#2 = DIRECTION ( 'NONE',  ( 1.603436792211359259E-31, 1.000000000000000000, 4.592425496802572986E-17 ) ) ;
#3 = PERSON_AND_ORGANIZATION_ROLE ( 'design_supplier' ) ;
#4 = DIRECTION ( 'NONE',  ( 1.540743955509788682E-31, 1.000000000000000000, 4.336808689942017736E-17 ) ) ;
#5 = CC_DESIGN_DATE_AND_TIME_ASSIGNMENT ( #97, #52, ( #108 ) ) ;
#6 = ORIENTED_EDGE ( 'NONE', *, *, #148, .F. ) ;
#7 = PRODUCT_DEFINITION_SHAPE ( 'NONE', 'NONE',  #137 ) ;
#8 = APPLICATION_CONTEXT ( 'configuration controlled 3d designs of mechanical parts and assemblies' ) ;
#9 = AXIS2_PLACEMENT_3D ( 'NONE', #101, #99, #20 ) ;
#10 = ADVANCED_FACE ( 'NONE', ( #115, #161 ), #54, .T. ) ;
#11 = APPROVAL_PERSON_ORGANIZATION ( #117, #132, #19 ) ;
#12 = EDGE_LOOP ( 'NONE', ( #142 ) ) ;
#13 = VERTEX_POINT ( 'NONE', #62 ) ;
#14 = DIRECTION ( 'NONE',  ( 1.603436792211359259E-31, 1.000000000000000000, 4.592425496802572986E-17 ) ) ;
#15 = LOCAL_TIME ( 13, 59, 11.00000000000000000, #89 ) ;
#16 = CC_DESIGN_SECURITY_CLASSIFICATION ( #108, ( #145 ) ) ;
#17 = CARTESIAN_POINT ( 'NONE',  ( -8.017183961056795855E-31, 1.054518597184117912E-32, -2.296212748401286493E-16 ) ) ;
#18 = APPROVAL_STATUS ( 'not_yet_approved' ) ;
#19 = APPROVAL_ROLE ( '' ) ;
#20 = DIRECTION ( 'NONE',  ( 1.603436792211359040E-31, 1.000000000000000000, 4.592425496802572986E-17 ) ) ;
#21 = APPROVAL_DATE_TIME ( #105, #135 ) ;
#22 = APPROVAL_PERSON_ORGANIZATION ( #30, #135, #122 ) ;
#23 =( GEOMETRIC_REPRESENTATION_CONTEXT ( 3 ) GLOBAL_UNCERTAINTY_ASSIGNED_CONTEXT ( ( #127 ) ) GLOBAL_UNIT_ASSIGNED_CONTEXT ( ( #109, #133, #72 ) ) REPRESENTATION_CONTEXT ( 'NONE', 'WORKASPACE' ) );
#24 = EDGE_LOOP ( 'NONE', ( #6 ) ) ;
#25 = CARTESIAN_POINT ( 'NONE',  ( 2.793185071074507473E-15, 20.00000000000000000, 0.8000000000000001554 ) ) ;
#26 = DATE_AND_TIME ( #63, #106 ) ;
#27 = APPLICATION_CONTEXT ( 'configuration controlled 3d designs of mechanical parts and assemblies' ) ;
#28 = PERSON_AND_ORGANIZATION_ROLE ( 'classification_officer' ) ;
#29 = DIRECTION ( 'NONE',  ( 3.491481338843133355E-15, -4.592425496802572986E-17, 1.000000000000000000 ) ) ;
#30 = PERSON_AND_ORGANIZATION ( #71, #116 ) ;
#31 = CARTESIAN_POINT ( 'NONE',  ( 0.0000000000000000000, 0.0000000000000000000, 0.0000000000000000000 ) ) ;
#32 = EDGE_CURVE ( 'NONE', #36, #36, #164, .T. ) ;
#33 = AXIS2_PLACEMENT_3D ( 'NONE', #128, #80, #2 ) ;
#34 = APPROVAL_PERSON_ORGANIZATION ( #169, #79, #49 ) ;
#35 = FACE_OUTER_BOUND ( 'NONE', #48, .T. ) ;
#36 = VERTEX_POINT ( 'NONE', #25 ) ;
#37 = CIRCLE ( 'NONE', #98, 5.000000000000000000 ) ;
#38 = PRODUCT ( '35444', '35444', '', ( #88 ) ) ;
#39 = VERTEX_POINT ( 'NONE', #83 ) ;
#40 = DATE_AND_TIME ( #77, #15 ) ;
#41 = FACE_OUTER_BOUND ( 'NONE', #144, .T. ) ;
#42 = DIRECTION ( 'NONE',  ( 1.000000000000000000, 0.0000000000000000000, 0.0000000000000000000 ) ) ;
#43 = CC_DESIGN_APPROVAL ( #79, ( #108 ) ) ;
#44 = CC_DESIGN_PERSON_AND_ORGANIZATION_ASSIGNMENT ( #103, #152, ( #38 ) ) ;
#45 = CLOSED_SHELL ( 'NONE', ( #110, #57, #10, #74 ) ) ;
#46 = CYLINDRICAL_SURFACE ( 'NONE', #56, 5.000000000000000000 ) ;
#47 = APPROVAL_DATE_TIME ( #159, #79 ) ;
#48 = EDGE_LOOP ( 'NONE', ( #168 ) ) ;
#49 = APPROVAL_ROLE ( '' ) ;
#50 = AXIS2_PLACEMENT_3D ( 'NONE', #67, #29, #51 ) ;
#51 = DIRECTION ( 'NONE',  ( -1.603436792211359040E-31, -1.000000000000000000, -4.592425496802572986E-17 ) ) ;
#52 = DATE_TIME_ROLE ( 'classification_date' ) ;
#53 = ORIENTED_EDGE ( 'NONE', *, *, #81, .T. ) ;
#54 = PLANE ( 'NONE',  #50 ) ;
#55 = CC_DESIGN_PERSON_AND_ORGANIZATION_ASSIGNMENT ( #141, #28, ( #108 ) ) ;
#56 = AXIS2_PLACEMENT_3D ( 'NONE', #31, #82, #130 ) ;
#57 = ADVANCED_FACE ( 'NONE', ( #154, #167 ), #104, .T. ) ;
#58 = PERSON_AND_ORGANIZATION_ROLE ( 'creator' ) ;
#59 = MANIFOLD_SOLID_BREP ( 'Corps-Déplacer/Copier1', #45 ) ;
#60 = CARTESIAN_POINT ( 'NONE',  ( 2.793185071074504318E-15, -3.673940397442055184E-17, 0.7999999999999992673 ) ) ;
#61 = PERSON_AND_ORGANIZATION ( #71, #116 ) ;
#62 = CARTESIAN_POINT ( 'NONE',  ( 2.793185071074507473E-15, 5.000000000000000000, 0.8000000000000001554 ) ) ;
#63 = CALENDAR_DATE ( 2021, 6, 12 ) ;
#64 = DESIGN_CONTEXT ( 'detailed design', #27, 'design' ) ;
#65 = FACE_BOUND ( 'NONE', #138, .T. ) ;
#66 = APPROVAL_DATE_TIME ( #26, #132 ) ;
#67 = CARTESIAN_POINT ( 'NONE',  ( 2.793185071074506290E-15, 5.000000000000000000, 0.7999999999999998224 ) ) ;
#68 = CALENDAR_DATE ( 2021, 6, 12 ) ;
#69 = CARTESIAN_POINT ( 'NONE',  ( 2.793185071074506684E-15, -3.673940397442058266E-17, 0.7999999999999999334 ) ) ;
#70 = LOCAL_TIME ( 13, 59, 11.00000000000000000, #146 ) ;
#71 = PERSON ( 'UNSPECIFIED', 'UNSPECIFIED', 'UNSPECIFIED', ('UNSPECIFIED'), ('UNSPECIFIED'), ('UNSPECIFIED') ) ;
#72 =( NAMED_UNIT ( * ) SI_UNIT ( $, .STERADIAN. ) SOLID_ANGLE_UNIT ( ) );
#73 = APPLICATION_PROTOCOL_DEFINITION ( 'international standard', 'config_control_design', 1994, #8 ) ;
#74 = ADVANCED_FACE ( 'NONE', ( #96, #41 ), #46, .F. ) ;
#75 = CC_DESIGN_PERSON_AND_ORGANIZATION_ASSIGNMENT ( #61, #58, ( #145 ) ) ;
#76 = EDGE_LOOP ( 'NONE', ( #92 ) ) ;
#77 = CALENDAR_DATE ( 2021, 6, 12 ) ;
#78 = CARTESIAN_POINT ( 'NONE',  ( 0.0000000000000000000, 5.000000000000000000, 0.0000000000000000000 ) ) ;
#79 = APPROVAL ( #124, 'UNSPECIFIED' ) ;
#80 = DIRECTION ( 'NONE',  ( -3.491481338843133355E-15, 4.592425496802572986E-17, -1.000000000000000000 ) ) ;
#81 = EDGE_CURVE ( 'NONE', #160, #160, #37, .T. ) ;
#82 = DIRECTION ( 'NONE',  ( -3.491481338843133355E-15, 4.592425496802572986E-17, -1.000000000000000000 ) ) ;
#83 = CARTESIAN_POINT ( 'NONE',  ( 0.0000000000000000000, 20.00000000000000000, 0.0000000000000000000 ) ) ;
#84 = AXIS2_PLACEMENT_3D ( 'NONE', #69, #125, #158 ) ;
#85 = CC_DESIGN_APPROVAL ( #132, ( #145 ) ) ;
#86 = CC_DESIGN_PERSON_AND_ORGANIZATION_ASSIGNMENT ( #129, #93, ( #137 ) ) ;
#87 = CC_DESIGN_APPROVAL ( #135, ( #137 ) ) ;
#88 = MECHANICAL_CONTEXT ( 'NONE', #8, 'mechanical' ) ;
#89 = COORDINATED_UNIVERSAL_TIME_OFFSET ( 1, 0, .AHEAD. ) ;
#90 = DIRECTION ( 'NONE',  ( 1.603436792211359259E-31, 1.000000000000000000, 4.592425496802572986E-17 ) ) ;
#91 = COORDINATED_UNIVERSAL_TIME_OFFSET ( 1, 0, .AHEAD. ) ;
#92 = ORIENTED_EDGE ( 'NONE', *, *, #32, .T. ) ;
#93 = PERSON_AND_ORGANIZATION_ROLE ( 'creator' ) ;
#94 = DIRECTION ( 'NONE',  ( -3.491481338843133355E-15, 4.592425496802572986E-17, -1.000000000000000000 ) ) ;
#95 = PERSON_AND_ORGANIZATION ( #71, #116 ) ;
#96 = FACE_OUTER_BOUND ( 'NONE', #100, .T. ) ;
#97 = DATE_AND_TIME ( #166, #165 ) ;
#98 = AXIS2_PLACEMENT_3D ( 'NONE', #17, #131, #14 ) ;
#99 = DIRECTION ( 'NONE',  ( -3.491481338843133355E-15, 4.592425496802572986E-17, -1.000000000000000000 ) ) ;
#100 = EDGE_LOOP ( 'NONE', ( #53 ) ) ;
#101 = CARTESIAN_POINT ( 'NONE',  ( -1.202577594158519203E-30, 5.000000000000000000, -3.444319122601929986E-16 ) ) ;
#102 = EDGE_CURVE ( 'NONE', #13, #13, #150, .T. ) ;
#103 = PERSON_AND_ORGANIZATION ( #71, #116 ) ;
#104 = CYLINDRICAL_SURFACE ( 'NONE', #33, 20.00000000000000000 ) ;
#105 = DATE_AND_TIME ( #68, #163 ) ;
#106 = LOCAL_TIME ( 13, 59, 11.00000000000000000, #155 ) ;
#107 = CC_DESIGN_DATE_AND_TIME_ASSIGNMENT ( #40, #111, ( #137 ) ) ;
#108 = SECURITY_CLASSIFICATION ( '', '', #126 ) ;
#109 =( LENGTH_UNIT ( ) NAMED_UNIT ( * ) SI_UNIT ( .MILLI., .METRE. ) );
#110 = ADVANCED_FACE ( 'NONE', ( #35, #65 ), #143, .T. ) ;
#111 = DATE_TIME_ROLE ( 'creation_date' ) ;
#112 = EDGE_LOOP ( 'NONE', ( #139 ) ) ;
#113 = SHAPE_DEFINITION_REPRESENTATION ( #7, #120 ) ;
#114 = APPROVAL_STATUS ( 'not_yet_approved' ) ;
#115 = FACE_BOUND ( 'NONE', #112, .T. ) ;
#116 = ORGANIZATION ( 'UNSPECIFIED', 'UNSPECIFIED', '' ) ;
#117 = PERSON_AND_ORGANIZATION ( #71, #116 ) ;
#118 = ORIENTED_EDGE ( 'NONE', *, *, #102, .F. ) ;
#119 = CARTESIAN_POINT ( 'NONE',  ( -3.206873584422718342E-30, 4.218074388736471648E-32, -9.184850993605145972E-16 ) ) ;
#120 = ADVANCED_BREP_SHAPE_REPRESENTATION ( '35444', ( #59, #136 ), #23 ) ;
#121 = CARTESIAN_POINT ( 'NONE',  ( 0.0000000000000000000, 0.0000000000000000000, 0.0000000000000000000 ) ) ;
#122 = APPROVAL_ROLE ( '' ) ;
#123 = ORIENTED_EDGE ( 'NONE', *, *, #81, .F. ) ;
#124 = APPROVAL_STATUS ( 'not_yet_approved' ) ;
#125 = DIRECTION ( 'NONE',  ( -3.491481338843133355E-15, 4.592425496802572986E-17, -1.000000000000000000 ) ) ;
#126 = SECURITY_CLASSIFICATION_LEVEL ( 'unclassified' ) ;
#127 = UNCERTAINTY_MEASURE_WITH_UNIT (LENGTH_MEASURE( 1.000000000000000082E-05 ), #109, 'distance_accuracy_value', 'NONE');
#128 = CARTESIAN_POINT ( 'NONE',  ( 0.0000000000000000000, 0.0000000000000000000, 0.0000000000000000000 ) ) ;
#129 = PERSON_AND_ORGANIZATION ( #71, #116 ) ;
#130 = DIRECTION ( 'NONE',  ( 1.603436792211359259E-31, 1.000000000000000000, 4.592425496802572986E-17 ) ) ;
#131 = DIRECTION ( 'NONE',  ( -3.491481338843133355E-15, 4.592425496802572986E-17, -1.000000000000000000 ) ) ;
#132 = APPROVAL ( #114, 'UNSPECIFIED' ) ;
#133 =( NAMED_UNIT ( * ) PLANE_ANGLE_UNIT ( ) SI_UNIT ( $, .RADIAN. ) );
#134 = DIRECTION ( 'NONE',  ( 0.0000000000000000000, 0.0000000000000000000, 1.000000000000000000 ) ) ;
#135 = APPROVAL ( #18, 'UNSPECIFIED' ) ;
#136 = AXIS2_PLACEMENT_3D ( 'NONE', #121, #134, #42 ) ;
#137 = PRODUCT_DEFINITION ( 'UNKNOWN', '', #145, #64 ) ;
#138 = EDGE_LOOP ( 'NONE', ( #123 ) ) ;
#139 = ORIENTED_EDGE ( 'NONE', *, *, #102, .T. ) ;
#140 = PRODUCT_RELATED_PRODUCT_CATEGORY ( 'detail', '', ( #38 ) ) ;
#141 = PERSON_AND_ORGANIZATION ( #71, #116 ) ;
#142 = ORIENTED_EDGE ( 'NONE', *, *, #32, .F. ) ;
#143 = PLANE ( 'NONE',  #9 ) ;
#144 = EDGE_LOOP ( 'NONE', ( #118 ) ) ;
#145 = PRODUCT_DEFINITION_FORMATION_WITH_SPECIFIED_SOURCE ( 'ANY', '', #38, .NOT_KNOWN. ) ;
#146 = COORDINATED_UNIVERSAL_TIME_OFFSET ( 1, 0, .AHEAD. ) ;
#147 = COORDINATED_UNIVERSAL_TIME_OFFSET ( 1, 0, .AHEAD. ) ;
#148 = EDGE_CURVE ( 'NONE', #39, #39, #149, .T. ) ;
#149 = CIRCLE ( 'NONE', #1, 20.00000000000000000 ) ;
#150 = CIRCLE ( 'NONE', #84, 5.000000000000000000 ) ;
#151 = AXIS2_PLACEMENT_3D ( 'NONE', #60, #94, #4 ) ;
#152 = PERSON_AND_ORGANIZATION_ROLE ( 'design_owner' ) ;
#153 = APPLICATION_PROTOCOL_DEFINITION ( 'international standard', 'config_control_design', 1994, #27 ) ;
#154 = FACE_OUTER_BOUND ( 'NONE', #76, .T. ) ;
#155 = COORDINATED_UNIVERSAL_TIME_OFFSET ( 1, 0, .AHEAD. ) ;
#156 = DIRECTION ( 'NONE',  ( -3.491481338843133355E-15, 4.592425496802572986E-17, -1.000000000000000000 ) ) ;
#157 = CC_DESIGN_PERSON_AND_ORGANIZATION_ASSIGNMENT ( #95, #3, ( #145 ) ) ;
#158 = DIRECTION ( 'NONE',  ( 1.540743955509788682E-31, 1.000000000000000000, 4.336808689942017736E-17 ) ) ;
#159 = DATE_AND_TIME ( #162, #70 ) ;
#160 = VERTEX_POINT ( 'NONE', #78 ) ;
#161 = FACE_OUTER_BOUND ( 'NONE', #12, .T. ) ;
#162 = CALENDAR_DATE ( 2021, 6, 12 ) ;
#163 = LOCAL_TIME ( 13, 59, 11.00000000000000000, #147 ) ;
#164 = CIRCLE ( 'NONE', #151, 20.00000000000000000 ) ;
#165 = LOCAL_TIME ( 13, 59, 11.00000000000000000, #91 ) ;
#166 = CALENDAR_DATE ( 2021, 6, 12 ) ;
#167 = FACE_OUTER_BOUND ( 'NONE', #24, .T. ) ;
#168 = ORIENTED_EDGE ( 'NONE', *, *, #148, .T. ) ;
#169 = PERSON_AND_ORGANIZATION ( #71, #116 ) ;
ENDSEC;
END-ISO-10303-21;
