ISO-10303-21;
HEADER;
FILE_DESCRIPTION (( 'STEP AP203' ),
    '1' );
FILE_NAME ('35420.step',
    '2021-12-06T12:59:10',
    ( '' ),
    ( '' ),
    'SwSTEP 2.0',
    'SolidWorks 2019',
    '' );
FILE_SCHEMA (( 'CONFIG_CONTROL_DESIGN' ));
ENDSEC;

DATA;
#1 = APPROVAL ( #102, 'UNSPECIFIED' ) ;
#2 = LOCAL_TIME ( 13, 59, 10.00000000000000000, #20 ) ;
#3 = EDGE_LOOP ( 'NONE', ( #15 ) ) ;
#4 = MANIFOLD_SOLID_BREP ( 'Corps-Déplacer/Copier1', #151 ) ;
#5 = FACE_OUTER_BOUND ( 'NONE', #106, .T. ) ;
#6 = CIRCLE ( 'NONE', #31, 4.000000000000000000 ) ;
#7 = FACE_OUTER_BOUND ( 'NONE', #3, .T. ) ;
#8 = PERSON_AND_ORGANIZATION_ROLE ( 'design_owner' ) ;
#9 = PRODUCT_DEFINITION ( 'UNKNOWN', '', #62, #24 ) ;
#10 = ADVANCED_BREP_SHAPE_REPRESENTATION ( '35420', ( #4, #41 ), #79 ) ;
#11 = DIRECTION ( 'NONE',  ( 3.491481338843133355E-15, -3.339945815856417334E-17, 1.000000000000000000 ) ) ;
#12 = CC_DESIGN_APPROVAL ( #117, ( #9 ) ) ;
#13 = EDGE_CURVE ( 'NONE', #138, #138, #137, .T. ) ;
#14 = PERSON_AND_ORGANIZATION ( #66, #127 ) ;
#15 = ORIENTED_EDGE ( 'NONE', *, *, #13, .T. ) ;
#16 = DIRECTION ( 'NONE',  ( 1.027162637006525861E-31, 1.000000000000000000, 2.891205793294678696E-17 ) ) ;
#17 = CC_DESIGN_APPROVAL ( #1, ( #68 ) ) ;
#18 = ORIENTED_EDGE ( 'NONE', *, *, #33, .F. ) ;
#19 =( NAMED_UNIT ( * ) PLANE_ANGLE_UNIT ( ) SI_UNIT ( $, .RADIAN. ) );
#20 = COORDINATED_UNIVERSAL_TIME_OFFSET ( 1, 0, .AHEAD. ) ;
#21 = AXIS2_PLACEMENT_3D ( 'NONE', #27, #80, #30 ) ;
#22 = FACE_OUTER_BOUND ( 'NONE', #25, .T. ) ;
#23 = SECURITY_CLASSIFICATION_LEVEL ( 'unclassified' ) ;
#24 = DESIGN_CONTEXT ( 'detailed design', #145, 'design' ) ;
#25 = EDGE_LOOP ( 'NONE', ( #81 ) ) ;
#26 = PERSON_AND_ORGANIZATION ( #66, #127 ) ;
#27 = CARTESIAN_POINT ( 'NONE',  ( -4.664543395523954366E-31, 4.462095221142716154E-33, -1.335978326342566933E-16 ) ) ;
#28 = EDGE_CURVE ( 'NONE', #125, #125, #46, .T. ) ;
#29 = APPROVAL_DATE_TIME ( #116, #87 ) ;
#30 = DIRECTION ( 'NONE',  ( 1.166135848880988591E-31, 1.000000000000000000, 3.339945815856417334E-17 ) ) ;
#31 = AXIS2_PLACEMENT_3D ( 'NONE', #69, #119, #67 ) ;
#32 = PLANE ( 'NONE',  #144 ) ;
#33 = EDGE_CURVE ( 'NONE', #63, #63, #6, .T. ) ;
#34 = LOCAL_TIME ( 13, 59, 10.00000000000000000, #155 ) ;
#35 = DIRECTION ( 'NONE',  ( -3.491481338843133355E-15, 3.339945815856417334E-17, -1.000000000000000000 ) ) ;
#36 = PERSON_AND_ORGANIZATION ( #66, #127 ) ;
#37 = DATE_AND_TIME ( #169, #34 ) ;
#38 = APPROVAL_PERSON_ORGANIZATION ( #139, #117, #98 ) ;
#39 = DATE_TIME_ROLE ( 'creation_date' ) ;
#40 = PERSON_AND_ORGANIZATION_ROLE ( 'design_supplier' ) ;
#41 = AXIS2_PLACEMENT_3D ( 'NONE', #114, #166, #129 ) ;
#42 = ORIENTED_EDGE ( 'NONE', *, *, #61, .F. ) ;
#43 = PERSON_AND_ORGANIZATION_ROLE ( 'creator' ) ;
#44 = EDGE_LOOP ( 'NONE', ( #132 ) ) ;
#45 = UNCERTAINTY_MEASURE_WITH_UNIT (LENGTH_MEASURE( 1.000000000000000082E-05 ), #57, 'distance_accuracy_value', 'NONE');
#46 = CIRCLE ( 'NONE', #156, 15.00000000000000000 ) ;
#47 = DIRECTION ( 'NONE',  ( 1.166135848880988372E-31, 1.000000000000000000, 3.339945815856417334E-17 ) ) ;
#48 = AXIS2_PLACEMENT_3D ( 'NONE', #97, #11, #112 ) ;
#49 = APPROVAL_STATUS ( 'not_yet_approved' ) ;
#50 = ADVANCED_FACE ( 'NONE', ( #7, #55 ), #108, .F. ) ;
#51 = CALENDAR_DATE ( 2021, 6, 12 ) ;
#52 = CC_DESIGN_DATE_AND_TIME_ASSIGNMENT ( #37, #39, ( #9 ) ) ;
#53 = COORDINATED_UNIVERSAL_TIME_OFFSET ( 1, 0, .AHEAD. ) ;
#54 = DATE_TIME_ROLE ( 'classification_date' ) ;
#55 = FACE_OUTER_BOUND ( 'NONE', #94, .T. ) ;
#56 = CARTESIAN_POINT ( 'NONE',  ( 0.0000000000000000000, 0.0000000000000000000, 0.0000000000000000000 ) ) ;
#57 =( LENGTH_UNIT ( ) NAMED_UNIT ( * ) SI_UNIT ( .MILLI., .METRE. ) );
#58 = FACE_BOUND ( 'NONE', #44, .T. ) ;
#59 = AXIS2_PLACEMENT_3D ( 'NONE', #165, #95, #148 ) ;
#60 = PLANE ( 'NONE',  #48 ) ;
#61 = EDGE_CURVE ( 'NONE', #168, #168, #126, .T. ) ;
#62 = PRODUCT_DEFINITION_FORMATION_WITH_SPECIFIED_SOURCE ( 'ANY', '', #76, .NOT_KNOWN. ) ;
#63 = VERTEX_POINT ( 'NONE', #111 ) ;
#64 = PRODUCT_RELATED_PRODUCT_CATEGORY ( 'detail', '', ( #76 ) ) ;
#65 = SHAPE_DEFINITION_REPRESENTATION ( #157, #10 ) ;
#66 = PERSON ( 'UNSPECIFIED', 'UNSPECIFIED', 'UNSPECIFIED', ('UNSPECIFIED'), ('UNSPECIFIED'), ('UNSPECIFIED') ) ;
#67 = DIRECTION ( 'NONE',  ( 1.925929944387235853E-31, 1.000000000000000000, 5.421010862427522170E-17 ) ) ;
#68 = SECURITY_CLASSIFICATION ( '', '', #23 ) ;
#69 = CARTESIAN_POINT ( 'NONE',  ( 3.840629472727446691E-15, -3.673940397442058882E-17, 1.099999999999999867 ) ) ;
#70 = DIRECTION ( 'NONE',  ( -3.491481338843133355E-15, 3.339945815856417334E-17, -1.000000000000000000 ) ) ;
#71 = ORIENTED_EDGE ( 'NONE', *, *, #28, .T. ) ;
#72 = APPROVAL_PERSON_ORGANIZATION ( #14, #1, #133 ) ;
#73 = CC_DESIGN_PERSON_AND_ORGANIZATION_ASSIGNMENT ( #160, #163, ( #68 ) ) ;
#74 = DIRECTION ( 'NONE',  ( 1.166135848880988591E-31, 1.000000000000000000, 3.339945815856417334E-17 ) ) ;
#75 = CC_DESIGN_PERSON_AND_ORGANIZATION_ASSIGNMENT ( #78, #8, ( #76 ) ) ;
#76 = PRODUCT ( '35420', '35420', '', ( #152 ) ) ;
#77 = CARTESIAN_POINT ( 'NONE',  ( 0.0000000000000000000, 15.00000000000000000, 0.0000000000000000000 ) ) ;
#78 = PERSON_AND_ORGANIZATION ( #66, #127 ) ;
#79 =( GEOMETRIC_REPRESENTATION_CONTEXT ( 3 ) GLOBAL_UNCERTAINTY_ASSIGNED_CONTEXT ( ( #45 ) ) GLOBAL_UNIT_ASSIGNED_CONTEXT ( ( #57, #19, #124 ) ) REPRESENTATION_CONTEXT ( 'NONE', 'WORKASPACE' ) );
#80 = DIRECTION ( 'NONE',  ( -3.491481338843133355E-15, 3.339945815856417334E-17, -1.000000000000000000 ) ) ;
#81 = ORIENTED_EDGE ( 'NONE', *, *, #28, .F. ) ;
#82 = CARTESIAN_POINT ( 'NONE',  ( -6.413747168845437034E-31, 4.000000000000000000, -1.836970198721029441E-16 ) ) ;
#83 = ADVANCED_FACE ( 'NONE', ( #5, #109 ), #161, .T. ) ;
#84 = APPLICATION_PROTOCOL_DEFINITION ( 'international standard', 'config_control_design', 1994, #145 ) ;
#85 = FACE_BOUND ( 'NONE', #115, .T. ) ;
#86 = LOCAL_TIME ( 13, 59, 10.00000000000000000, #53 ) ;
#87 = APPROVAL ( #143, 'UNSPECIFIED' ) ;
#88 = PERSON_AND_ORGANIZATION ( #66, #127 ) ;
#89 = LOCAL_TIME ( 13, 59, 10.00000000000000000, #103 ) ;
#90 = DATE_AND_TIME ( #130, #167 ) ;
#91 = PERSON_AND_ORGANIZATION ( #66, #127 ) ;
#92 = ORIENTED_EDGE ( 'NONE', *, *, #61, .T. ) ;
#93 = CALENDAR_DATE ( 2021, 6, 12 ) ;
#94 = EDGE_LOOP ( 'NONE', ( #18 ) ) ;
#95 = DIRECTION ( 'NONE',  ( -3.491481338843133355E-15, 3.339945815856417334E-17, -1.000000000000000000 ) ) ;
#96 = CC_DESIGN_DATE_AND_TIME_ASSIGNMENT ( #90, #54, ( #68 ) ) ;
#97 = CARTESIAN_POINT ( 'NONE',  ( 3.840629472727446691E-15, 4.000000000000000000, 1.099999999999999867 ) ) ;
#98 = APPROVAL_ROLE ( '' ) ;
#99 = PERSON_AND_ORGANIZATION_ROLE ( 'creator' ) ;
#100 = CC_DESIGN_PERSON_AND_ORGANIZATION_ASSIGNMENT ( #91, #43, ( #62 ) ) ;
#101 = CC_DESIGN_SECURITY_CLASSIFICATION ( #68, ( #62 ) ) ;
#102 = APPROVAL_STATUS ( 'not_yet_approved' ) ;
#103 = COORDINATED_UNIVERSAL_TIME_OFFSET ( 1, 0, .AHEAD. ) ;
#104 = ADVANCED_FACE ( 'NONE', ( #150, #85 ), #32, .T. ) ;
#105 = CARTESIAN_POINT ( 'NONE',  ( -1.749203773321482668E-30, 1.673285707928518233E-32, -5.009918723784626062E-16 ) ) ;
#106 = EDGE_LOOP ( 'NONE', ( #71 ) ) ;
#107 = CALENDAR_DATE ( 2021, 6, 12 ) ;
#108 = CYLINDRICAL_SURFACE ( 'NONE', #59, 4.000000000000000000 ) ;
#109 = FACE_OUTER_BOUND ( 'NONE', #134, .T. ) ;
#110 = APPLICATION_PROTOCOL_DEFINITION ( 'international standard', 'config_control_design', 1994, #153 ) ;
#111 = CARTESIAN_POINT ( 'NONE',  ( 3.840629472727447480E-15, 4.000000000000000000, 1.100000000000000089 ) ) ;
#112 = DIRECTION ( 'NONE',  ( -1.166135848880988591E-31, -1.000000000000000000, -3.339945815856417334E-17 ) ) ;
#113 = ADVANCED_FACE ( 'NONE', ( #58, #22 ), #60, .T. ) ;
#114 = CARTESIAN_POINT ( 'NONE',  ( 0.0000000000000000000, 0.0000000000000000000, 0.0000000000000000000 ) ) ;
#115 = EDGE_LOOP ( 'NONE', ( #149 ) ) ;
#116 = DATE_AND_TIME ( #93, #89 ) ;
#117 = APPROVAL ( #49, 'UNSPECIFIED' ) ;
#118 = AXIS2_PLACEMENT_3D ( 'NONE', #56, #35, #47 ) ;
#119 = DIRECTION ( 'NONE',  ( -3.491481338843133355E-15, 3.339945815856417334E-17, -1.000000000000000000 ) ) ;
#120 = DIRECTION ( 'NONE',  ( 1.166135848880988372E-31, 1.000000000000000000, 3.339945815856417334E-17 ) ) ;
#121 = DIRECTION ( 'NONE',  ( -3.491481338843133355E-15, 3.339945815856417334E-17, -1.000000000000000000 ) ) ;
#122 = CC_DESIGN_PERSON_AND_ORGANIZATION_ASSIGNMENT ( #26, #40, ( #62 ) ) ;
#123 = CARTESIAN_POINT ( 'NONE',  ( 0.0000000000000000000, 4.000000000000000000, 0.0000000000000000000 ) ) ;
#124 =( NAMED_UNIT ( * ) SI_UNIT ( $, .STERADIAN. ) SOLID_ANGLE_UNIT ( ) );
#125 = VERTEX_POINT ( 'NONE', #142 ) ;
#126 = CIRCLE ( 'NONE', #141, 15.00000000000000000 ) ;
#127 = ORGANIZATION ( 'UNSPECIFIED', 'UNSPECIFIED', '' ) ;
#128 = APPROVAL_DATE_TIME ( #154, #117 ) ;
#129 = DIRECTION ( 'NONE',  ( 1.000000000000000000, 0.0000000000000000000, 0.0000000000000000000 ) ) ;
#130 = CALENDAR_DATE ( 2021, 6, 12 ) ;
#131 = DATE_AND_TIME ( #107, #86 ) ;
#132 = ORIENTED_EDGE ( 'NONE', *, *, #33, .T. ) ;
#133 = APPROVAL_ROLE ( '' ) ;
#134 = EDGE_LOOP ( 'NONE', ( #42 ) ) ;
#135 = CARTESIAN_POINT ( 'NONE',  ( 3.840629472727445902E-15, -3.673940397442058266E-17, 1.099999999999999645 ) ) ;
#136 = CC_DESIGN_PERSON_AND_ORGANIZATION_ASSIGNMENT ( #36, #99, ( #9 ) ) ;
#137 = CIRCLE ( 'NONE', #21, 4.000000000000000000 ) ;
#138 = VERTEX_POINT ( 'NONE', #123 ) ;
#139 = PERSON_AND_ORGANIZATION ( #66, #127 ) ;
#140 = DIRECTION ( 'NONE',  ( -3.491481338843133355E-15, 3.339945815856417334E-17, -1.000000000000000000 ) ) ;
#141 = AXIS2_PLACEMENT_3D ( 'NONE', #105, #70, #120 ) ;
#142 = CARTESIAN_POINT ( 'NONE',  ( 3.840629472727447480E-15, 15.00000000000000000, 1.100000000000000089 ) ) ;
#143 = APPROVAL_STATUS ( 'not_yet_approved' ) ;
#144 = AXIS2_PLACEMENT_3D ( 'NONE', #82, #140, #74 ) ;
#145 = APPLICATION_CONTEXT ( 'configuration controlled 3d designs of mechanical parts and assemblies' ) ;
#146 = APPROVAL_DATE_TIME ( #131, #1 ) ;
#147 = EDGE_LOOP ( 'NONE', ( #92 ) ) ;
#148 = DIRECTION ( 'NONE',  ( 1.166135848880988591E-31, 1.000000000000000000, 3.339945815856417334E-17 ) ) ;
#149 = ORIENTED_EDGE ( 'NONE', *, *, #13, .F. ) ;
#150 = FACE_OUTER_BOUND ( 'NONE', #147, .T. ) ;
#151 = CLOSED_SHELL ( 'NONE', ( #104, #83, #113, #50 ) ) ;
#152 = MECHANICAL_CONTEXT ( 'NONE', #153, 'mechanical' ) ;
#153 = APPLICATION_CONTEXT ( 'configuration controlled 3d designs of mechanical parts and assemblies' ) ;
#154 = DATE_AND_TIME ( #51, #2 ) ;
#155 = COORDINATED_UNIVERSAL_TIME_OFFSET ( 1, 0, .AHEAD. ) ;
#156 = AXIS2_PLACEMENT_3D ( 'NONE', #135, #121, #16 ) ;
#157 = PRODUCT_DEFINITION_SHAPE ( 'NONE', 'NONE',  #9 ) ;
#158 = CC_DESIGN_APPROVAL ( #87, ( #62 ) ) ;
#159 = APPROVAL_ROLE ( '' ) ;
#160 = PERSON_AND_ORGANIZATION ( #66, #127 ) ;
#161 = CYLINDRICAL_SURFACE ( 'NONE', #118, 15.00000000000000000 ) ;
#162 = APPROVAL_PERSON_ORGANIZATION ( #88, #87, #159 ) ;
#163 = PERSON_AND_ORGANIZATION_ROLE ( 'classification_officer' ) ;
#164 = COORDINATED_UNIVERSAL_TIME_OFFSET ( 1, 0, .AHEAD. ) ;
#165 = CARTESIAN_POINT ( 'NONE',  ( 0.0000000000000000000, 0.0000000000000000000, 0.0000000000000000000 ) ) ;
#166 = DIRECTION ( 'NONE',  ( 0.0000000000000000000, 0.0000000000000000000, 1.000000000000000000 ) ) ;
#167 = LOCAL_TIME ( 13, 59, 10.00000000000000000, #164 ) ;
#168 = VERTEX_POINT ( 'NONE', #77 ) ;
#169 = CALENDAR_DATE ( 2021, 6, 12 ) ;
ENDSEC;
END-ISO-10303-21;
