ISO-10303-21;
HEADER;
FILE_DESCRIPTION (( 'STEP AP203' ),
    '1' );
FILE_NAME ('35370.step',
    '2021-12-06T12:59:09',
    ( '' ),
    ( '' ),
    'SwSTEP 2.0',
    'SolidWorks 2019',
    '' );
FILE_SCHEMA (( 'CONFIG_CONTROL_DESIGN' ));
ENDSEC;

DATA;
#1 = DATE_AND_TIME ( #67, #121 ) ;
#2 = CIRCLE ( 'NONE', #21, 20.00000000000000355 ) ;
#3 = APPLICATION_PROTOCOL_DEFINITION ( 'international standard', 'config_control_design', 1994, #59 ) ;
#4 = EDGE_LOOP ( 'NONE', ( #111 ) ) ;
#5 = DATE_AND_TIME ( #138, #47 ) ;
#6 = DIRECTION ( 'NONE',  ( -3.491481338843133355E-15, 1.224646799147352961E-16, -1.000000000000000000 ) ) ;
#7 = PERSON_AND_ORGANIZATION ( #106, #82 ) ;
#8 = APPROVAL_PERSON_ORGANIZATION ( #44, #64, #156 ) ;
#9 = PRODUCT ( '35370', '35370', '', ( #131 ) ) ;
#10 = ORIENTED_EDGE ( 'NONE', *, *, #37, .T. ) ;
#11 = FACE_OUTER_BOUND ( 'NONE', #61, .T. ) ;
#12 = DIRECTION ( 'NONE',  ( 4.275831445896957731E-31, 1.000000000000000000, 1.224646799147352961E-16 ) ) ;
#13 = LOCAL_TIME ( 13, 59, 9.000000000000000000, #92 ) ;
#14 = VERTEX_POINT ( 'NONE', #42 ) ;
#15 = APPLICATION_PROTOCOL_DEFINITION ( 'international standard', 'config_control_design', 1994, #41 ) ;
#16 = PERSON_AND_ORGANIZATION ( #106, #82 ) ;
#17 = CIRCLE ( 'NONE', #84, 20.00000000000000355 ) ;
#18 = SECURITY_CLASSIFICATION_LEVEL ( 'unclassified' ) ;
#19 = CC_DESIGN_DATE_AND_TIME_ASSIGNMENT ( #55, #105, ( #76 ) ) ;
#20 = APPROVAL_STATUS ( 'not_yet_approved' ) ;
#21 = AXIS2_PLACEMENT_3D ( 'NONE', #28, #80, #12 ) ;
#22 = CIRCLE ( 'NONE', #65, 5.000000000000000000 ) ;
#23 = APPROVAL_DATE_TIME ( #5, #127 ) ;
#24 = ORIENTED_EDGE ( 'NONE', *, *, #116, .F. ) ;
#25 = CC_DESIGN_APPROVAL ( #127, ( #130 ) ) ;
#26 = ADVANCED_FACE ( 'NONE', ( #152, #86 ), #36, .F. ) ;
#27 = EDGE_LOOP ( 'NONE', ( #10 ) ) ;
#28 = CARTESIAN_POINT ( 'NONE',  ( -8.551662891793916512E-30, 2.999519565323714778E-31, -2.449293598294706513E-15 ) ) ;
#29 = CLOSED_SHELL ( 'NONE', ( #88, #110, #140, #26 ) ) ;
#30 = DIRECTION ( 'NONE',  ( -3.491481338843133355E-15, 1.224646799147352961E-16, -1.000000000000000000 ) ) ;
#31 = PERSON_AND_ORGANIZATION_ROLE ( 'creator' ) ;
#32 = DIRECTION ( 'NONE',  ( 0.0000000000000000000, 0.0000000000000000000, 1.000000000000000000 ) ) ;
#33 = APPROVAL_DATE_TIME ( #1, #43 ) ;
#34 = ORIENTED_EDGE ( 'NONE', *, *, #107, .F. ) ;
#35 = ORIENTED_EDGE ( 'NONE', *, *, #37, .F. ) ;
#36 = CYLINDRICAL_SURFACE ( 'NONE', #112, 5.000000000000000888 ) ;
#37 = EDGE_CURVE ( 'NONE', #52, #52, #128, .T. ) ;
#38 = VERTEX_POINT ( 'NONE', #90 ) ;
#39 = CARTESIAN_POINT ( 'NONE',  ( 0.0000000000000000000, 0.0000000000000000000, 0.0000000000000000000 ) ) ;
#40 = CC_DESIGN_APPROVAL ( #64, ( #77 ) ) ;
#41 = APPLICATION_CONTEXT ( 'configuration controlled 3d designs of mechanical parts and assemblies' ) ;
#42 = CARTESIAN_POINT ( 'NONE',  ( 1.047444401652940007E-15, 5.000000000000000000, 0.3000000000000000444 ) ) ;
#43 = APPROVAL ( #20, 'UNSPECIFIED' ) ;
#44 = PERSON_AND_ORGANIZATION ( #106, #82 ) ;
#45 = CC_DESIGN_PERSON_AND_ORGANIZATION_ASSIGNMENT ( #53, #31, ( #76 ) ) ;
#46 = PLANE ( 'NONE',  #91 ) ;
#47 = LOCAL_TIME ( 13, 59, 9.000000000000000000, #162 ) ;
#48 = FACE_OUTER_BOUND ( 'NONE', #165, .T. ) ;
#49 = CC_DESIGN_PERSON_AND_ORGANIZATION_ASSIGNMENT ( #83, #68, ( #9 ) ) ;
#50 = DIRECTION ( 'NONE',  ( -3.491481338843133355E-15, 1.224646799147352961E-16, -1.000000000000000000 ) ) ;
#51 = FACE_BOUND ( 'NONE', #95, .T. ) ;
#52 = VERTEX_POINT ( 'NONE', #157 ) ;
#53 = PERSON_AND_ORGANIZATION ( #106, #82 ) ;
#54 = APPROVAL_PERSON_ORGANIZATION ( #7, #127, #149 ) ;
#55 = DATE_AND_TIME ( #160, #118 ) ;
#56 = PERSON_AND_ORGANIZATION ( #106, #82 ) ;
#57 = MANIFOLD_SOLID_BREP ( 'Corps-Déplacer/Copier1', #29 ) ;
#58 = CC_DESIGN_PERSON_AND_ORGANIZATION_ASSIGNMENT ( #16, #144, ( #130 ) ) ;
#59 = APPLICATION_CONTEXT ( 'configuration controlled 3d designs of mechanical parts and assemblies' ) ;
#60 = CARTESIAN_POINT ( 'NONE',  ( 0.0000000000000000000, 0.0000000000000000000, 0.0000000000000000000 ) ) ;
#61 = EDGE_LOOP ( 'NONE', ( #78 ) ) ;
#62 = APPROVAL_PERSON_ORGANIZATION ( #134, #43, #120 ) ;
#63 = CARTESIAN_POINT ( 'NONE',  ( 1.047444401652936851E-15, 5.000000000000000000, 0.2999999999999991007 ) ) ;
#64 = APPROVAL ( #94, 'UNSPECIFIED' ) ;
#65 = AXIS2_PLACEMENT_3D ( 'NONE', #73, #6, #164 ) ;
#66 = VERTEX_POINT ( 'NONE', #115 ) ;
#67 = CALENDAR_DATE ( 2021, 6, 12 ) ;
#68 = PERSON_AND_ORGANIZATION_ROLE ( 'design_owner' ) ;
#69 = COORDINATED_UNIVERSAL_TIME_OFFSET ( 1, 0, .AHEAD. ) ;
#70 =( NAMED_UNIT ( * ) SI_UNIT ( $, .STERADIAN. ) SOLID_ANGLE_UNIT ( ) );
#71 = DESIGN_CONTEXT ( 'detailed design', #41, 'design' ) ;
#72 = AXIS2_PLACEMENT_3D ( 'NONE', #125, #75, #151 ) ;
#73 = CARTESIAN_POINT ( 'NONE',  ( 1.047444401652938034E-15, -3.673940397442052103E-17, 0.2999999999999994338 ) ) ;
#74 = APPROVAL_STATUS ( 'not_yet_approved' ) ;
#75 = DIRECTION ( 'NONE',  ( -3.491481338843133355E-15, 1.224646799147352961E-16, -1.000000000000000000 ) ) ;
#76 = PRODUCT_DEFINITION ( 'UNKNOWN', '', #77, #71 ) ;
#77 = PRODUCT_DEFINITION_FORMATION_WITH_SPECIFIED_SOURCE ( 'ANY', '', #9, .NOT_KNOWN. ) ;
#78 = ORIENTED_EDGE ( 'NONE', *, *, #116, .T. ) ;
#79 = PRODUCT_RELATED_PRODUCT_CATEGORY ( 'detail', '', ( #9 ) ) ;
#80 = DIRECTION ( 'NONE',  ( -3.491481338843133355E-15, 1.224646799147352961E-16, -1.000000000000000000 ) ) ;
#81 = PERSON_AND_ORGANIZATION ( #106, #82 ) ;
#82 = ORGANIZATION ( 'UNSPECIFIED', 'UNSPECIFIED', '' ) ;
#83 = PERSON_AND_ORGANIZATION ( #106, #82 ) ;
#84 = AXIS2_PLACEMENT_3D ( 'NONE', #155, #30, #117 ) ;
#85 = CALENDAR_DATE ( 2021, 6, 12 ) ;
#86 = FACE_OUTER_BOUND ( 'NONE', #166, .T. ) ;
#87 = EDGE_LOOP ( 'NONE', ( #167 ) ) ;
#88 = ADVANCED_FACE ( 'NONE', ( #11, #51 ), #46, .T. ) ;
#89 = DIRECTION ( 'NONE',  ( -3.491481338843133355E-15, 1.224646799147352961E-16, -1.000000000000000000 ) ) ;
#90 = CARTESIAN_POINT ( 'NONE',  ( 0.0000000000000000000, 20.00000000000000355, 0.0000000000000000000 ) ) ;
#91 = AXIS2_PLACEMENT_3D ( 'NONE', #100, #123, #137 ) ;
#92 = COORDINATED_UNIVERSAL_TIME_OFFSET ( 1, 0, .AHEAD. ) ;
#93 = CALENDAR_DATE ( 2021, 6, 12 ) ;
#94 = APPROVAL_STATUS ( 'not_yet_approved' ) ;
#95 = EDGE_LOOP ( 'NONE', ( #35 ) ) ;
#96 = CC_DESIGN_APPROVAL ( #43, ( #76 ) ) ;
#97 = FACE_OUTER_BOUND ( 'NONE', #87, .T. ) ;
#98 = CYLINDRICAL_SURFACE ( 'NONE', #102, 20.00000000000000355 ) ;
#99 = DIRECTION ( 'NONE',  ( 4.275831445896957731E-31, 1.000000000000000000, 1.224646799147352961E-16 ) ) ;
#100 = CARTESIAN_POINT ( 'NONE',  ( -3.206873584422719743E-30, 5.000000000000000888, -9.184850993605149917E-16 ) ) ;
#101 = DIRECTION ( 'NONE',  ( -4.275831445896957731E-31, -1.000000000000000000, -1.224646799147352961E-16 ) ) ;
#102 = AXIS2_PLACEMENT_3D ( 'NONE', #148, #89, #139 ) ;
#103 = APPROVAL_DATE_TIME ( #159, #64 ) ;
#104 = COORDINATED_UNIVERSAL_TIME_OFFSET ( 1, 0, .AHEAD. ) ;
#105 = DATE_TIME_ROLE ( 'creation_date' ) ;
#106 = PERSON ( 'UNSPECIFIED', 'UNSPECIFIED', 'UNSPECIFIED', ('UNSPECIFIED'), ('UNSPECIFIED'), ('UNSPECIFIED') ) ;
#107 = EDGE_CURVE ( 'NONE', #14, #14, #22, .T. ) ;
#108 = DATE_AND_TIME ( #85, #158 ) ;
#109 = CC_DESIGN_SECURITY_CLASSIFICATION ( #130, ( #77 ) ) ;
#110 = ADVANCED_FACE ( 'NONE', ( #122, #48 ), #98, .T. ) ;
#111 = ORIENTED_EDGE ( 'NONE', *, *, #143, .T. ) ;
#112 = AXIS2_PLACEMENT_3D ( 'NONE', #60, #50, #99 ) ;
#113 = CC_DESIGN_PERSON_AND_ORGANIZATION_ASSIGNMENT ( #56, #169, ( #77 ) ) ;
#114 = DIRECTION ( 'NONE',  ( 3.491481338843133355E-15, -1.224646799147352961E-16, 1.000000000000000000 ) ) ;
#115 = CARTESIAN_POINT ( 'NONE',  ( 1.047444401652940007E-15, 20.00000000000000355, 0.3000000000000000444 ) ) ;
#116 = EDGE_CURVE ( 'NONE', #38, #38, #2, .T. ) ;
#117 = DIRECTION ( 'NONE',  ( 4.237045877651918001E-31, 1.000000000000000000, 1.219727444046192242E-16 ) ) ;
#118 = LOCAL_TIME ( 13, 59, 9.000000000000000000, #104 ) ;
#119 = CC_DESIGN_PERSON_AND_ORGANIZATION_ASSIGNMENT ( #81, #132, ( #77 ) ) ;
#120 = APPROVAL_ROLE ( '' ) ;
#121 = LOCAL_TIME ( 13, 59, 9.000000000000000000, #142 ) ;
#122 = FACE_OUTER_BOUND ( 'NONE', #4, .T. ) ;
#123 = DIRECTION ( 'NONE',  ( -3.491481338843133355E-15, 1.224646799147352961E-16, -1.000000000000000000 ) ) ;
#124 = PRODUCT_DEFINITION_SHAPE ( 'NONE', 'NONE',  #76 ) ;
#125 = CARTESIAN_POINT ( 'NONE',  ( -2.137915722948479128E-30, 7.498798913309286944E-32, -6.123233995736766282E-16 ) ) ;
#126 = FACE_BOUND ( 'NONE', #145, .T. ) ;
#127 = APPROVAL ( #74, 'UNSPECIFIED' ) ;
#128 = CIRCLE ( 'NONE', #72, 5.000000000000000888 ) ;
#129 = DIRECTION ( 'NONE',  ( 1.000000000000000000, 0.0000000000000000000, 0.0000000000000000000 ) ) ;
#130 = SECURITY_CLASSIFICATION ( '', '', #18 ) ;
#131 = MECHANICAL_CONTEXT ( 'NONE', #59, 'mechanical' ) ;
#132 = PERSON_AND_ORGANIZATION_ROLE ( 'design_supplier' ) ;
#133 =( NAMED_UNIT ( * ) PLANE_ANGLE_UNIT ( ) SI_UNIT ( $, .RADIAN. ) );
#134 = PERSON_AND_ORGANIZATION ( #106, #82 ) ;
#135 = UNCERTAINTY_MEASURE_WITH_UNIT (LENGTH_MEASURE( 1.000000000000000082E-05 ), #141, 'distance_accuracy_value', 'NONE');
#136 = DATE_TIME_ROLE ( 'classification_date' ) ;
#137 = DIRECTION ( 'NONE',  ( 4.275831445896957731E-31, 1.000000000000000000, 1.224646799147352961E-16 ) ) ;
#138 = CALENDAR_DATE ( 2021, 6, 12 ) ;
#139 = DIRECTION ( 'NONE',  ( 4.275831445896957731E-31, 1.000000000000000000, 1.224646799147352961E-16 ) ) ;
#140 = ADVANCED_FACE ( 'NONE', ( #126, #97 ), #153, .T. ) ;
#141 =( LENGTH_UNIT ( ) NAMED_UNIT ( * ) SI_UNIT ( .MILLI., .METRE. ) );
#142 = COORDINATED_UNIVERSAL_TIME_OFFSET ( 1, 0, .AHEAD. ) ;
#143 = EDGE_CURVE ( 'NONE', #66, #66, #17, .T. ) ;
#144 = PERSON_AND_ORGANIZATION_ROLE ( 'classification_officer' ) ;
#145 = EDGE_LOOP ( 'NONE', ( #150 ) ) ;
#146 = AXIS2_PLACEMENT_3D ( 'NONE', #39, #32, #129 ) ;
#147 = SHAPE_DEFINITION_REPRESENTATION ( #124, #168 ) ;
#148 = CARTESIAN_POINT ( 'NONE',  ( 0.0000000000000000000, 0.0000000000000000000, 0.0000000000000000000 ) ) ;
#149 = APPROVAL_ROLE ( '' ) ;
#150 = ORIENTED_EDGE ( 'NONE', *, *, #107, .T. ) ;
#151 = DIRECTION ( 'NONE',  ( 4.275831445896957731E-31, 1.000000000000000000, 1.224646799147352961E-16 ) ) ;
#152 = FACE_OUTER_BOUND ( 'NONE', #27, .T. ) ;
#153 = PLANE ( 'NONE',  #154 ) ;
#154 = AXIS2_PLACEMENT_3D ( 'NONE', #63, #114, #101 ) ;
#155 = CARTESIAN_POINT ( 'NONE',  ( 1.047444401652931526E-15, -3.673940397442029300E-17, 0.2999999999999976019 ) ) ;
#156 = APPROVAL_ROLE ( '' ) ;
#157 = CARTESIAN_POINT ( 'NONE',  ( 0.0000000000000000000, 5.000000000000000888, 0.0000000000000000000 ) ) ;
#158 = LOCAL_TIME ( 13, 59, 9.000000000000000000, #69 ) ;
#159 = DATE_AND_TIME ( #93, #13 ) ;
#160 = CALENDAR_DATE ( 2021, 6, 12 ) ;
#161 =( GEOMETRIC_REPRESENTATION_CONTEXT ( 3 ) GLOBAL_UNCERTAINTY_ASSIGNED_CONTEXT ( ( #135 ) ) GLOBAL_UNIT_ASSIGNED_CONTEXT ( ( #141, #133, #70 ) ) REPRESENTATION_CONTEXT ( 'NONE', 'WORKASPACE' ) );
#162 = COORDINATED_UNIVERSAL_TIME_OFFSET ( 1, 0, .AHEAD. ) ;
#163 = CC_DESIGN_DATE_AND_TIME_ASSIGNMENT ( #108, #136, ( #130 ) ) ;
#164 = DIRECTION ( 'NONE',  ( 4.237045877651918877E-31, 1.000000000000000000, 1.192622389734054877E-16 ) ) ;
#165 = EDGE_LOOP ( 'NONE', ( #24 ) ) ;
#166 = EDGE_LOOP ( 'NONE', ( #34 ) ) ;
#167 = ORIENTED_EDGE ( 'NONE', *, *, #143, .F. ) ;
#168 = ADVANCED_BREP_SHAPE_REPRESENTATION ( '35370', ( #57, #146 ), #161 ) ;
#169 = PERSON_AND_ORGANIZATION_ROLE ( 'creator' ) ;
ENDSEC;
END-ISO-10303-21;
