ISO-10303-21;
HEADER;
FILE_DESCRIPTION (( 'STEP AP203' ),
    '1' );
FILE_NAME ('35369.step',
    '2021-12-06T12:59:09',
    ( '' ),
    ( '' ),
    'SwSTEP 2.0',
    'SolidWorks 2019',
    '' );
FILE_SCHEMA (( 'CONFIG_CONTROL_DESIGN' ));
ENDSEC;

DATA;
#1 = CARTESIAN_POINT ( 'NONE',  ( 3.142333204958827119E-15, 3.775030183294631025E-16, 0.9000000000000020206 ) ) ;
#2 = APPROVAL_PERSON_ORGANIZATION ( #136, #113, #61 ) ;
#3 = EDGE_LOOP ( 'NONE', ( #158 ) ) ;
#4 = MANIFOLD_SOLID_BREP ( 'Corps-Déplacer/Copier1', #169 ) ;
#5 = DIRECTION ( 'NONE',  ( -3.491481338843133355E-15, -4.194477981438469659E-16, -1.000000000000000000 ) ) ;
#6 = VERTEX_POINT ( 'NONE', #167 ) ;
#7 = APPLICATION_PROTOCOL_DEFINITION ( 'international standard', 'config_control_design', 1994, #151 ) ;
#8 = SECURITY_CLASSIFICATION_LEVEL ( 'unclassified' ) ;
#9 = DATE_AND_TIME ( #29, #49 ) ;
#10 = LOCAL_TIME ( 13, 59, 9.000000000000000000, #21 ) ;
#11 = MECHANICAL_CONTEXT ( 'NONE', #151, 'mechanical' ) ;
#12 = AXIS2_PLACEMENT_3D ( 'NONE', #152, #62, #46 ) ;
#13 = EDGE_CURVE ( 'NONE', #103, #103, #96, .T. ) ;
#14 = APPROVAL_DATE_TIME ( #124, #41 ) ;
#15 = AXIS2_PLACEMENT_3D ( 'NONE', #112, #19, #162 ) ;
#16 = EDGE_CURVE ( 'NONE', #165, #165, #132, .T. ) ;
#17 = COORDINATED_UNIVERSAL_TIME_OFFSET ( 1, 0, .AHEAD. ) ;
#18 = DATE_AND_TIME ( #70, #109 ) ;
#19 = DIRECTION ( 'NONE',  ( -3.491481338843133355E-15, -4.194477981438469659E-16, -1.000000000000000000 ) ) ;
#20 = DIRECTION ( 'NONE',  ( 0.0000000000000000000, 0.0000000000000000000, 1.000000000000000000 ) ) ;
#21 = COORDINATED_UNIVERSAL_TIME_OFFSET ( 1, 0, .AHEAD. ) ;
#22 = APPLICATION_CONTEXT ( 'configuration controlled 3d designs of mechanical parts and assemblies' ) ;
#23 = CYLINDRICAL_SURFACE ( 'NONE', #27, 20.00000000000000355 ) ;
#24 = DIRECTION ( 'NONE',  ( -3.491481338843133355E-15, -4.194477981438469659E-16, -1.000000000000000000 ) ) ;
#25 = DESIGN_CONTEXT ( 'detailed design', #22, 'design' ) ;
#26 = DIRECTION ( 'NONE',  ( -3.491481338843133355E-15, -4.194477981438469659E-16, -1.000000000000000000 ) ) ;
#27 = AXIS2_PLACEMENT_3D ( 'NONE', #130, #26, #64 ) ;
#28 = DIRECTION ( 'NONE',  ( -1.464494159838083401E-30, 1.000000000000000000, -4.194477981438469659E-16 ) ) ;
#29 = CALENDAR_DATE ( 2021, 6, 12 ) ;
#30 = PERSON_AND_ORGANIZATION_ROLE ( 'creator' ) ;
#31 = VERTEX_POINT ( 'NONE', #164 ) ;
#32 = PERSON_AND_ORGANIZATION ( #123, #87 ) ;
#33 = PERSON_AND_ORGANIZATION ( #123, #87 ) ;
#34 = CC_DESIGN_APPROVAL ( #113, ( #88 ) ) ;
#35 = PERSON_AND_ORGANIZATION ( #123, #87 ) ;
#36 = APPROVAL ( #42, 'UNSPECIFIED' ) ;
#37 = PRODUCT_RELATED_PRODUCT_CATEGORY ( 'detail', '', ( #120 ) ) ;
#38 = CC_DESIGN_DATE_AND_TIME_ASSIGNMENT ( #9, #83, ( #88 ) ) ;
#39 = DIRECTION ( 'NONE',  ( -3.491481338843133355E-15, -4.194477981438469659E-16, -1.000000000000000000 ) ) ;
#40 = FACE_BOUND ( 'NONE', #69, .T. ) ;
#41 = APPROVAL ( #93, 'UNSPECIFIED' ) ;
#42 = APPROVAL_STATUS ( 'not_yet_approved' ) ;
#43 = AXIS2_PLACEMENT_3D ( 'NONE', #143, #39, #145 ) ;
#44 = CALENDAR_DATE ( 2021, 6, 12 ) ;
#45 = COORDINATED_UNIVERSAL_TIME_OFFSET ( 1, 0, .AHEAD. ) ;
#46 = DIRECTION ( 'NONE',  ( -1.464494159838083050E-30, 1.000000000000000000, -4.194477981438469659E-16 ) ) ;
#47 = PERSON_AND_ORGANIZATION_ROLE ( 'design_owner' ) ;
#48 = APPROVAL_DATE_TIME ( #134, #36 ) ;
#49 = LOCAL_TIME ( 13, 59, 9.000000000000000000, #45 ) ;
#50 = ORIENTED_EDGE ( 'NONE', *, *, #125, .F. ) ;
#51 = EDGE_LOOP ( 'NONE', ( #50 ) ) ;
#52 = LOCAL_TIME ( 13, 59, 9.000000000000000000, #104 ) ;
#53 = DIRECTION ( 'NONE',  ( 3.491481338843133355E-15, 4.194477981438469659E-16, 1.000000000000000000 ) ) ;
#54 = CC_DESIGN_APPROVAL ( #36, ( #111 ) ) ;
#55 = ORIENTED_EDGE ( 'NONE', *, *, #13, .F. ) ;
#56 = DATE_AND_TIME ( #166, #52 ) ;
#57 = EDGE_LOOP ( 'NONE', ( #55 ) ) ;
#58 = COORDINATED_UNIVERSAL_TIME_OFFSET ( 1, 0, .AHEAD. ) ;
#59 = PERSON_AND_ORGANIZATION ( #123, #87 ) ;
#60 =( NAMED_UNIT ( * ) PLANE_ANGLE_UNIT ( ) SI_UNIT ( $, .RADIAN. ) );
#61 = APPROVAL_ROLE ( '' ) ;
#62 = DIRECTION ( 'NONE',  ( -3.491481338843133355E-15, -4.194477981438469659E-16, -1.000000000000000000 ) ) ;
#63 = FACE_OUTER_BOUND ( 'NONE', #146, .T. ) ;
#64 = DIRECTION ( 'NONE',  ( -1.464494159838083401E-30, 1.000000000000000000, -4.194477981438469659E-16 ) ) ;
#65 = CIRCLE ( 'NONE', #126, 5.000000000000000888 ) ;
#66 = FACE_OUTER_BOUND ( 'NONE', #91, .T. ) ;
#67 = UNCERTAINTY_MEASURE_WITH_UNIT (LENGTH_MEASURE( 1.000000000000000082E-05 ), #135, 'distance_accuracy_value', 'NONE');
#68 = CC_DESIGN_PERSON_AND_ORGANIZATION_ASSIGNMENT ( #32, #82, ( #139 ) ) ;
#69 = EDGE_LOOP ( 'NONE', ( #97 ) ) ;
#70 = CALENDAR_DATE ( 2021, 6, 12 ) ;
#71 = DATE_TIME_ROLE ( 'creation_date' ) ;
#72 = LOCAL_TIME ( 13, 59, 9.000000000000000000, #58 ) ;
#73 = CC_DESIGN_PERSON_AND_ORGANIZATION_ASSIGNMENT ( #59, #148, ( #88 ) ) ;
#74 =( NAMED_UNIT ( * ) SI_UNIT ( $, .STERADIAN. ) SOLID_ANGLE_UNIT ( ) );
#75 = DIRECTION ( 'NONE',  ( 1.000000000000000000, 0.0000000000000000000, 0.0000000000000000000 ) ) ;
#76 = CARTESIAN_POINT ( 'NONE',  ( 0.0000000000000000000, 20.00000000000000355, 0.0000000000000000000 ) ) ;
#77 = APPROVAL_ROLE ( '' ) ;
#78 = DIRECTION ( 'NONE',  ( -1.463706757734298022E-30, 1.000000000000000000, -4.119968255444913398E-16 ) ) ;
#79 = CARTESIAN_POINT ( 'NONE',  ( 7.322470799190417878E-30, 8.796822768386071452E-31, 2.097238990719235174E-15 ) ) ;
#80 = FACE_OUTER_BOUND ( 'NONE', #3, .T. ) ;
#81 = APPROVAL_STATUS ( 'not_yet_approved' ) ;
#82 = PERSON_AND_ORGANIZATION_ROLE ( 'design_supplier' ) ;
#83 = DATE_TIME_ROLE ( 'classification_date' ) ;
#84 = FACE_OUTER_BOUND ( 'NONE', #57, .T. ) ;
#85 = CC_DESIGN_PERSON_AND_ORGANIZATION_ASSIGNMENT ( #86, #30, ( #139 ) ) ;
#86 = PERSON_AND_ORGANIZATION ( #123, #87 ) ;
#87 = ORGANIZATION ( 'UNSPECIFIED', 'UNSPECIFIED', '' ) ;
#88 = SECURITY_CLASSIFICATION ( '', '', #8 ) ;
#89 = ORIENTED_EDGE ( 'NONE', *, *, #16, .T. ) ;
#90 = SHAPE_DEFINITION_REPRESENTATION ( #133, #141 ) ;
#91 = EDGE_LOOP ( 'NONE', ( #144 ) ) ;
#92 = DIRECTION ( 'NONE',  ( -1.464494159838083225E-30, 1.000000000000000000, -4.194477981438469659E-16 ) ) ;
#93 = APPROVAL_STATUS ( 'not_yet_approved' ) ;
#94 = CC_DESIGN_DATE_AND_TIME_ASSIGNMENT ( #18, #71, ( #111 ) ) ;
#95 = PLANE ( 'NONE',  #110 ) ;
#96 = CIRCLE ( 'NONE', #154, 5.000000000000004441 ) ;
#97 = ORIENTED_EDGE ( 'NONE', *, *, #13, .T. ) ;
#98 = APPROVAL_DATE_TIME ( #56, #113 ) ;
#99 = CARTESIAN_POINT ( 'NONE',  ( 3.142333204958830669E-15, 5.000000000000004441, 0.9000000000000031308 ) ) ;
#100 = DIRECTION ( 'NONE',  ( -3.491481338843133355E-15, -4.194477981438469659E-16, -1.000000000000000000 ) ) ;
#101 = CC_DESIGN_PERSON_AND_ORGANIZATION_ASSIGNMENT ( #105, #47, ( #120 ) ) ;
#102 = PERSON_AND_ORGANIZATION ( #123, #87 ) ;
#103 = VERTEX_POINT ( 'NONE', #149 ) ;
#104 = COORDINATED_UNIVERSAL_TIME_OFFSET ( 1, 0, .AHEAD. ) ;
#105 = PERSON_AND_ORGANIZATION ( #123, #87 ) ;
#106 = CARTESIAN_POINT ( 'NONE',  ( 0.0000000000000000000, 0.0000000000000000000, 0.0000000000000000000 ) ) ;
#107 = ADVANCED_FACE ( 'NONE', ( #40, #66 ), #114, .T. ) ;
#108 = CIRCLE ( 'NONE', #15, 20.00000000000000355 ) ;
#109 = LOCAL_TIME ( 13, 59, 9.000000000000000000, #17 ) ;
#110 = AXIS2_PLACEMENT_3D ( 'NONE', #121, #100, #92 ) ;
#111 = PRODUCT_DEFINITION ( 'UNKNOWN', '', #139, #25 ) ;
#112 = CARTESIAN_POINT ( 'NONE',  ( 3.142333204958849208E-15, 3.775030183294658142E-16, 0.9000000000000084599 ) ) ;
#113 = APPROVAL ( #81, 'UNSPECIFIED' ) ;
#114 = PLANE ( 'NONE',  #137 ) ;
#115 = ORIENTED_EDGE ( 'NONE', *, *, #125, .T. ) ;
#116 =( GEOMETRIC_REPRESENTATION_CONTEXT ( 3 ) GLOBAL_UNCERTAINTY_ASSIGNED_CONTEXT ( ( #67 ) ) GLOBAL_UNIT_ASSIGNED_CONTEXT ( ( #135, #60, #74 ) ) REPRESENTATION_CONTEXT ( 'NONE', 'WORKASPACE' ) );
#117 = CC_DESIGN_SECURITY_CLASSIFICATION ( #88, ( #139 ) ) ;
#118 = CYLINDRICAL_SURFACE ( 'NONE', #12, 5.000000000000002665 ) ;
#119 = APPROVAL_ROLE ( '' ) ;
#120 = PRODUCT ( '35369', '35369', '', ( #11 ) ) ;
#121 = CARTESIAN_POINT ( 'NONE',  ( 1.098370619878562612E-29, 5.000000000000000888, 3.145858486078852959E-15 ) ) ;
#122 = APPROVAL_PERSON_ORGANIZATION ( #102, #41, #77 ) ;
#123 = PERSON ( 'UNSPECIFIED', 'UNSPECIFIED', 'UNSPECIFIED', ('UNSPECIFIED'), ('UNSPECIFIED'), ('UNSPECIFIED') ) ;
#124 = DATE_AND_TIME ( #138, #10 ) ;
#125 = EDGE_CURVE ( 'NONE', #6, #6, #65, .T. ) ;
#126 = AXIS2_PLACEMENT_3D ( 'NONE', #79, #5, #28 ) ;
#127 = CC_DESIGN_APPROVAL ( #41, ( #139 ) ) ;
#128 = ADVANCED_FACE ( 'NONE', ( #80, #63 ), #23, .T. ) ;
#129 = APPROVAL_PERSON_ORGANIZATION ( #33, #36, #119 ) ;
#130 = CARTESIAN_POINT ( 'NONE',  ( 0.0000000000000000000, 0.0000000000000000000, 0.0000000000000000000 ) ) ;
#131 = PERSON_AND_ORGANIZATION_ROLE ( 'creator' ) ;
#132 = CIRCLE ( 'NONE', #43, 20.00000000000000355 ) ;
#133 = PRODUCT_DEFINITION_SHAPE ( 'NONE', 'NONE',  #111 ) ;
#134 = DATE_AND_TIME ( #44, #72 ) ;
#135 =( LENGTH_UNIT ( ) NAMED_UNIT ( * ) SI_UNIT ( .MILLI., .METRE. ) );
#136 = PERSON_AND_ORGANIZATION ( #123, #87 ) ;
#137 = AXIS2_PLACEMENT_3D ( 'NONE', #99, #53, #161 ) ;
#138 = CALENDAR_DATE ( 2021, 6, 12 ) ;
#139 = PRODUCT_DEFINITION_FORMATION_WITH_SPECIFIED_SOURCE ( 'ANY', '', #120, .NOT_KNOWN. ) ;
#140 = EDGE_CURVE ( 'NONE', #31, #31, #108, .T. ) ;
#141 = ADVANCED_BREP_SHAPE_REPRESENTATION ( '35369', ( #4, #156 ), #116 ) ;
#142 = CC_DESIGN_PERSON_AND_ORGANIZATION_ASSIGNMENT ( #35, #131, ( #111 ) ) ;
#143 = CARTESIAN_POINT ( 'NONE',  ( 2.928988319676167151E-29, 3.518729107354428581E-30, 8.388955962876940698E-15 ) ) ;
#144 = ORIENTED_EDGE ( 'NONE', *, *, #140, .F. ) ;
#145 = DIRECTION ( 'NONE',  ( -1.464494159838083401E-30, 1.000000000000000000, -4.194477981438469659E-16 ) ) ;
#146 = EDGE_LOOP ( 'NONE', ( #157 ) ) ;
#147 = ADVANCED_FACE ( 'NONE', ( #150, #155 ), #95, .T. ) ;
#148 = PERSON_AND_ORGANIZATION_ROLE ( 'classification_officer' ) ;
#149 = CARTESIAN_POINT ( 'NONE',  ( 3.142333204958819625E-15, 5.000000000000004441, 0.9000000000000000222 ) ) ;
#150 = FACE_OUTER_BOUND ( 'NONE', #159, .T. ) ;
#151 = APPLICATION_CONTEXT ( 'configuration controlled 3d designs of mechanical parts and assemblies' ) ;
#152 = CARTESIAN_POINT ( 'NONE',  ( 0.0000000000000000000, 0.0000000000000000000, 0.0000000000000000000 ) ) ;
#153 = FACE_OUTER_BOUND ( 'NONE', #160, .T. ) ;
#154 = AXIS2_PLACEMENT_3D ( 'NONE', #1, #24, #78 ) ;
#155 = FACE_BOUND ( 'NONE', #51, .T. ) ;
#156 = AXIS2_PLACEMENT_3D ( 'NONE', #106, #20, #75 ) ;
#157 = ORIENTED_EDGE ( 'NONE', *, *, #16, .F. ) ;
#158 = ORIENTED_EDGE ( 'NONE', *, *, #140, .T. ) ;
#159 = EDGE_LOOP ( 'NONE', ( #89 ) ) ;
#160 = EDGE_LOOP ( 'NONE', ( #115 ) ) ;
#161 = DIRECTION ( 'NONE',  ( 1.464494159838083225E-30, -1.000000000000000000, 4.194477981438469659E-16 ) ) ;
#162 = DIRECTION ( 'NONE',  ( -1.463706757734299073E-30, 1.000000000000000000, -4.174178364069191085E-16 ) ) ;
#163 = ADVANCED_FACE ( 'NONE', ( #153, #84 ), #118, .F. ) ;
#164 = CARTESIAN_POINT ( 'NONE',  ( 3.142333204958820020E-15, 20.00000000000000355, 0.9000000000000001332 ) ) ;
#165 = VERTEX_POINT ( 'NONE', #76 ) ;
#166 = CALENDAR_DATE ( 2021, 6, 12 ) ;
#167 = CARTESIAN_POINT ( 'NONE',  ( 0.0000000000000000000, 5.000000000000000888, 0.0000000000000000000 ) ) ;
#168 = APPLICATION_PROTOCOL_DEFINITION ( 'international standard', 'config_control_design', 1994, #22 ) ;
#169 = CLOSED_SHELL ( 'NONE', ( #147, #128, #107, #163 ) ) ;
ENDSEC;
END-ISO-10303-21;
