ISO-10303-21;
HEADER;
FILE_DESCRIPTION (( 'STEP AP203' ),
    '1' );
FILE_NAME ('35325.step',
    '2021-09-03T07:22:02',
    ( '' ),
    ( '' ),
    'SwSTEP 2.0',
    'SolidWorks 2019',
    '' );
FILE_SCHEMA (( 'CONFIG_CONTROL_DESIGN' ));
ENDSEC;

DATA;
#1 = CC_DESIGN_DATE_AND_TIME_ASSIGNMENT ( #289, #217, ( #195 ) ) ;
#2 = LOCAL_TIME ( 9, 22, 2.000000000000000000, #89 ) ;
#3 = EDGE_LOOP ( 'NONE', ( #236, #297 ) ) ;
#4 = CC_DESIGN_APPROVAL ( #83, ( #88 ) ) ;
#5 = APPLICATION_PROTOCOL_DEFINITION ( 'international standard', 'config_control_design', 1994, #254 ) ;
#6 = VECTOR ( 'NONE', #333, 1000.000000000000000 ) ;
#7 = ORIENTED_EDGE ( 'NONE', *, *, #184, .F. ) ;
#8 = CARTESIAN_POINT ( 'NONE',  ( 9.440521373612154214E-15, -3.311289152216124919E-16, 2.703872785624044983 ) ) ;
#9 = PERSON_AND_ORGANIZATION ( #12, #118 ) ;
#10 = DIRECTION ( 'NONE',  ( 1.798245827342160317E-15, -0.8571673007021098911, 0.5150380749100582634 ) ) ;
#11 =( GEOMETRIC_REPRESENTATION_CONTEXT ( 3 ) GLOBAL_UNCERTAINTY_ASSIGNED_CONTEXT ( ( #85 ) ) GLOBAL_UNIT_ASSIGNED_CONTEXT ( ( #156, #316, #180 ) ) REPRESENTATION_CONTEXT ( 'NONE', 'WORKASPACE' ) );
#12 = PERSON ( 'UNSPECIFIED', 'UNSPECIFIED', 'UNSPECIFIED', ('UNSPECIFIED'), ('UNSPECIFIED'), ('UNSPECIFIED') ) ;
#13 = CARTESIAN_POINT ( 'NONE',  ( 2.932844324628232018E-13, -1.028703311283776980E-14, 84.00000000000000000 ) ) ;
#14 = PRODUCT_RELATED_PRODUCT_CATEGORY ( 'detail', '', ( #138 ) ) ;
#15 = CARTESIAN_POINT ( 'NONE',  ( 9.440521373612154214E-15, -3.311289152216124919E-16, 2.703872785624044983 ) ) ;
#16 = CONICAL_SURFACE ( 'NONE', #274, 3.699999999999999289, 0.7853981633974602694 ) ;
#17 = LOCAL_TIME ( 9, 22, 2.000000000000000000, #292 ) ;
#18 = DIRECTION ( 'NONE',  ( 3.423875456688427274E-31, 1.000000000000000000, 9.637352644315617430E-17 ) ) ;
#19 = EDGE_LOOP ( 'NONE', ( #278, #212, #73, #137 ) ) ;
#20 = CARTESIAN_POINT ( 'NONE',  ( 1.924124150653627782E-30, 4.499999999999991118, 5.510910596163078709E-16 ) ) ;
#21 = AXIS2_PLACEMENT_3D ( 'NONE', #234, #189, #331 ) ;
#22 = LINE ( 'NONE', #139, #6 ) ;
#23 = DIRECTION ( 'NONE',  ( 1.000000000000000000, 0.0000000000000000000, 0.0000000000000000000 ) ) ;
#24 = CC_DESIGN_PERSON_AND_ORGANIZATION_ASSIGNMENT ( #314, #28, ( #195 ) ) ;
#25 = ORIENTED_EDGE ( 'NONE', *, *, #30, .T. ) ;
#26 = AXIS2_PLACEMENT_3D ( 'NONE', #36, #150, #295 ) ;
#27 = CARTESIAN_POINT ( 'NONE',  ( 9.991612433228462381E-15, 4.499999999999989342, 2.703872785624045427 ) ) ;
#28 = PERSON_AND_ORGANIZATION_ROLE ( 'creator' ) ;
#29 = PERSON_AND_ORGANIZATION ( #12, #118 ) ;
#30 = EDGE_CURVE ( 'NONE', #241, #34, #22, .T. ) ;
#31 = CYLINDRICAL_SURFACE ( 'NONE', #26, 4.499999999999996447 ) ;
#32 = VECTOR ( 'NONE', #202, 999.9999999999998863 ) ;
#33 = VERTEX_POINT ( 'NONE', #215 ) ;
#34 = VERTEX_POINT ( 'NONE', #56 ) ;
#35 = CARTESIAN_POINT ( 'NONE',  ( 0.0000000000000000000, 0.0000000000000000000, 0.0000000000000000000 ) ) ;
#36 = CARTESIAN_POINT ( 'NONE',  ( 0.0000000000000000000, 0.0000000000000000000, 0.0000000000000000000 ) ) ;
#37 = DIRECTION ( 'NONE',  ( 4.275831445896959482E-31, 1.000000000000000000, 1.224646799147353454E-16 ) ) ;
#38 = AXIS2_PLACEMENT_3D ( 'NONE', #111, #51, #281 ) ;
#39 = PERSON_AND_ORGANIZATION_ROLE ( 'classification_officer' ) ;
#40 = ORIENTED_EDGE ( 'NONE', *, *, #177, .F. ) ;
#41 = ADVANCED_FACE ( 'NONE', ( #166 ), #68, .T. ) ;
#42 = DIRECTION ( 'NONE',  ( 3.491481338843133355E-15, -1.224646799147353454E-16, 1.000000000000000000 ) ) ;
#43 = CARTESIAN_POINT ( 'NONE',  ( 9.440521373612152637E-15, -4.499999999999989342, 2.703872785624044539 ) ) ;
#44 = APPROVAL ( #221, 'UNSPECIFIED' ) ;
#45 = ORIENTED_EDGE ( 'NONE', *, *, #93, .T. ) ;
#46 = DIRECTION ( 'NONE',  ( -3.491481338843133355E-15, 1.224646799147353454E-16, -1.000000000000000000 ) ) ;
#47 = CARTESIAN_POINT ( 'NONE',  ( 5.510910596163065890E-16, -4.499999999999996447, -5.510910596163105333E-16 ) ) ;
#48 = CIRCLE ( 'NONE', #113, 3.699999999999999289 ) ;
#49 = DIRECTION ( 'NONE',  ( -3.491481338843133355E-15, 1.224646799147353454E-16, -1.000000000000000000 ) ) ;
#50 = PERSON_AND_ORGANIZATION_ROLE ( 'design_owner' ) ;
#51 = DIRECTION ( 'NONE',  ( -3.491481338843133355E-15, 1.224646799147353454E-16, -1.000000000000000000 ) ) ;
#52 = ORIENTED_EDGE ( 'NONE', *, *, #308, .F. ) ;
#53 = DIRECTION ( 'NONE',  ( -3.491481338843133355E-15, 1.224646799147353454E-16, -1.000000000000000000 ) ) ;
#54 = CIRCLE ( 'NONE', #21, 4.499999999999992895 ) ;
#55 = ADVANCED_FACE ( 'NONE', ( #76 ), #262, .T. ) ;
#56 = CARTESIAN_POINT ( 'NONE',  ( 1.012529588264508673E-13, 4.499999999999989342, 29.00000000000000000 ) ) ;
#57 = FACE_OUTER_BOUND ( 'NONE', #117, .T. ) ;
#58 = ADVANCED_FACE ( 'NONE', ( #222 ), #270, .T. ) ;
#59 = VERTEX_POINT ( 'NONE', #201 ) ;
#60 = CIRCLE ( 'NONE', #126, 4.499999999999992895 ) ;
#61 = ORIENTED_EDGE ( 'NONE', *, *, #208, .F. ) ;
#62 = CALENDAR_DATE ( 2021, 3, 9 ) ;
#63 = CARTESIAN_POINT ( 'NONE',  ( 0.0000000000000000000, 0.0000000000000000000, 0.0000000000000000000 ) ) ;
#64 = MANIFOLD_SOLID_BREP ( 'Corps-Déplacer/Copier1[2]', #220 ) ;
#65 = SECURITY_CLASSIFICATION_LEVEL ( 'unclassified' ) ;
#66 = DIRECTION ( 'NONE',  ( 4.275831445896959482E-31, 1.000000000000000000, 1.224646799147353207E-16 ) ) ;
#67 = ORIENTED_EDGE ( 'NONE', *, *, #233, .F. ) ;
#68 = CONICAL_SURFACE ( 'NONE', #267, 3.699999999999999289, 0.7853981633974602694 ) ;
#69 = DIRECTION ( 'NONE',  ( -3.423875456688427274E-31, -1.000000000000000000, -9.637352644315617430E-17 ) ) ;
#70 = ORIENTED_EDGE ( 'NONE', *, *, #93, .F. ) ;
#71 = CALENDAR_DATE ( 2021, 3, 9 ) ;
#72 = DIRECTION ( 'NONE',  ( 3.491481338843133355E-15, -1.224646799147353454E-16, 1.000000000000000000 ) ) ;
#73 = ORIENTED_EDGE ( 'NONE', *, *, #115, .T. ) ;
#74 = AXIS2_PLACEMENT_3D ( 'NONE', #120, #42, #227 ) ;
#75 = PERSON_AND_ORGANIZATION ( #12, #118 ) ;
#76 = FACE_OUTER_BOUND ( 'NONE', #249, .T. ) ;
#77 = LINE ( 'NONE', #47, #188 ) ;
#78 = AXIS2_PLACEMENT_3D ( 'NONE', #323, #99, #250 ) ;
#79 = DIRECTION ( 'NONE',  ( 0.0000000000000000000, 0.0000000000000000000, 1.000000000000000000 ) ) ;
#80 = ORIENTED_EDGE ( 'NONE', *, *, #269, .F. ) ;
#81 = ORIENTED_EDGE ( 'NONE', *, *, #106, .F. ) ;
#82 = EDGE_LOOP ( 'NONE', ( #7, #232, #25, #142 ) ) ;
#83 = APPROVAL ( #151, 'UNSPECIFIED' ) ;
#84 = VECTOR ( 'NONE', #107, 1000.000000000000000 ) ;
#85 = UNCERTAINTY_MEASURE_WITH_UNIT (LENGTH_MEASURE( 1.000000000000000082E-05 ), #156, 'distance_accuracy_value', 'NONE');
#86 = CARTESIAN_POINT ( 'NONE',  ( 1.964231941687160957E-13, -4.499999999999996447, 29.00000000000000000 ) ) ;
#87 = APPROVAL_ROLE ( '' ) ;
#88 = SECURITY_CLASSIFICATION ( '', '', #65 ) ;
#89 = COORDINATED_UNIVERSAL_TIME_OFFSET ( 1, 0, .AHEAD. ) ;
#90 = EDGE_LOOP ( 'NONE', ( #327, #45, #67, #256 ) ) ;
#91 = PERSON_AND_ORGANIZATION ( #12, #118 ) ;
#92 = PLANE ( 'NONE',  #109 ) ;
#93 = EDGE_CURVE ( 'NONE', #264, #183, #337, .T. ) ;
#94 = CIRCLE ( 'NONE', #326, 4.500000000000000000 ) ;
#95 = CYLINDRICAL_SURFACE ( 'NONE', #182, 4.499999999999991118 ) ;
#96 = PERSON_AND_ORGANIZATION ( #12, #118 ) ;
#97 = CARTESIAN_POINT ( 'NONE',  ( 5.510910596163059973E-16, -4.499999999999991118, -5.510910596163098430E-16 ) ) ;
#98 = ADVANCED_FACE ( 'NONE', ( #317 ), #92, .F. ) ;
#99 = DIRECTION ( 'NONE',  ( -3.491481338843133355E-15, 1.224646799147353454E-16, -1.000000000000000000 ) ) ;
#100 = CARTESIAN_POINT ( 'NONE',  ( 1.012529588264508673E-13, -3.551475717527324818E-15, 29.00000000000000000 ) ) ;
#101 = LINE ( 'NONE', #322, #32 ) ;
#102 = PRODUCT_DEFINITION_FORMATION_WITH_SPECIFIED_SOURCE ( 'ANY', '', #138, .NOT_KNOWN. ) ;
#103 = DIRECTION ( 'NONE',  ( 0.0000000000000000000, 1.000000000000000000, 0.0000000000000000000 ) ) ;
#104 = AXIS2_PLACEMENT_3D ( 'NONE', #235, #261, #110 ) ;
#105 = ORIENTED_EDGE ( 'NONE', *, *, #177, .T. ) ;
#106 = EDGE_CURVE ( 'NONE', #162, #33, #243, .T. ) ;
#107 = DIRECTION ( 'NONE',  ( -2.468850131082235367E-15, 0.7071067811865561215, -0.7071067811865389130 ) ) ;
#108 = EDGE_LOOP ( 'NONE', ( #61, #172, #266 ) ) ;
#109 = AXIS2_PLACEMENT_3D ( 'NONE', #197, #190, #257 ) ;
#110 = DIRECTION ( 'NONE',  ( -3.423875456688427274E-31, -1.000000000000000000, -9.637352644315617430E-17 ) ) ;
#111 = CARTESIAN_POINT ( 'NONE',  ( 2.932844324628232018E-13, -1.028703311283776980E-14, 84.00000000000000000 ) ) ;
#112 = PERSON_AND_ORGANIZATION ( #12, #118 ) ;
#113 = AXIS2_PLACEMENT_3D ( 'NONE', #13, #123, #230 ) ;
#114 = ORIENTED_EDGE ( 'NONE', *, *, #214, .T. ) ;
#115 = EDGE_CURVE ( 'NONE', #162, #241, #239, .T. ) ;
#116 = ADVANCED_FACE ( 'NONE', ( #57 ), #16, .T. ) ;
#117 = EDGE_LOOP ( 'NONE', ( #125, #242, #311, #253 ) ) ;
#118 = ORGANIZATION ( 'UNSPECIFIED', 'UNSPECIFIED', '' ) ;
#119 = APPROVAL_PERSON_ORGANIZATION ( #75, #83, #272 ) ;
#120 = CARTESIAN_POINT ( 'NONE',  ( 1.012529588264508673E-13, 3.374459510989170860E-32, 29.00000000000000000 ) ) ;
#121 = ADVANCED_FACE ( 'NONE', ( #259 ), #255, .T. ) ;
#122 = SHAPE_DEFINITION_REPRESENTATION ( #148, #165 ) ;
#123 = DIRECTION ( 'NONE',  ( -3.491481338843133355E-15, 1.224646799147353454E-16, -1.000000000000000000 ) ) ;
#124 = DIRECTION ( 'NONE',  ( -3.491481338843133355E-15, 1.224646799147353454E-16, -1.000000000000000000 ) ) ;
#125 = ORIENTED_EDGE ( 'NONE', *, *, #106, .T. ) ;
#126 = AXIS2_PLACEMENT_3D ( 'NONE', #100, #159, #300 ) ;
#127 = DIRECTION ( 'NONE',  ( -3.491481338843133355E-15, 1.224646799147353454E-16, -1.000000000000000000 ) ) ;
#128 = LOCAL_TIME ( 9, 22, 2.000000000000000000, #194 ) ;
#129 = DIRECTION ( 'NONE',  ( -3.491481338843133355E-15, 1.224646799147353454E-16, -1.000000000000000000 ) ) ;
#130 = CC_DESIGN_PERSON_AND_ORGANIZATION_ASSIGNMENT ( #96, #39, ( #88 ) ) ;
#131 = EDGE_LOOP ( 'NONE', ( #81, #52 ) ) ;
#132 = AXIS2_PLACEMENT_3D ( 'NONE', #238, #79, #23 ) ;
#133 = CARTESIAN_POINT ( 'NONE',  ( 2.932844324628232018E-13, 3.699999999999989075, 84.00000000000000000 ) ) ;
#134 = CC_DESIGN_PERSON_AND_ORGANIZATION_ASSIGNMENT ( #29, #144, ( #102 ) ) ;
#135 = DIRECTION ( 'NONE',  ( -3.491481338843133355E-15, 1.224646799147353454E-16, -1.000000000000000000 ) ) ;
#136 = DESIGN_CONTEXT ( 'detailed design', #254, 'design' ) ;
#137 = ORIENTED_EDGE ( 'NONE', *, *, #206, .F. ) ;
#138 = PRODUCT ( '35325', '35325', '', ( #280 ) ) ;
#139 = CARTESIAN_POINT ( 'NONE',  ( 1.924124150653630234E-30, 4.499999999999996447, 5.510910596163085611E-16 ) ) ;
#140 = APPLICATION_PROTOCOL_DEFINITION ( 'international standard', 'config_control_design', 1994, #155 ) ;
#141 = AXIS2_PLACEMENT_3D ( 'NONE', #8, #72, #69 ) ;
#142 = ORIENTED_EDGE ( 'NONE', *, *, #301, .F. ) ;
#143 = CALENDAR_DATE ( 2021, 3, 9 ) ;
#144 = PERSON_AND_ORGANIZATION_ROLE ( 'creator' ) ;
#145 = AXIS2_PLACEMENT_3D ( 'NONE', #15, #127, #18 ) ;
#146 = CC_DESIGN_DATE_AND_TIME_ASSIGNMENT ( #178, #203, ( #88 ) ) ;
#147 = EDGE_LOOP ( 'NONE', ( #244, #163, #330, #185 ) ) ;
#148 = PRODUCT_DEFINITION_SHAPE ( 'NONE', 'NONE',  #195 ) ;
#149 = CARTESIAN_POINT ( 'NONE',  ( 5.589783115964779526E-14, -4.499999999999995559, 29.00000000000000000 ) ) ;
#150 = DIRECTION ( 'NONE',  ( -3.491481338843133355E-15, 1.224646799147353454E-16, -1.000000000000000000 ) ) ;
#151 = APPROVAL_STATUS ( 'not_yet_approved' ) ;
#152 = ADVANCED_FACE ( 'NONE', ( #318 ), #265, .T. ) ;
#153 = LINE ( 'NONE', #199, #226 ) ;
#154 = APPROVAL_DATE_TIME ( #181, #83 ) ;
#155 = APPLICATION_CONTEXT ( 'configuration controlled 3d designs of mechanical parts and assemblies' ) ;
#156 =( LENGTH_UNIT ( ) NAMED_UNIT ( * ) SI_UNIT ( .MILLI., .METRE. ) );
#157 = CARTESIAN_POINT ( 'NONE',  ( 2.904912473917487961E-13, 4.499999999999989342, 83.20000000000001705 ) ) ;
#158 = CARTESIAN_POINT ( 'NONE',  ( 1.012529588264508673E-13, -3.551475717527324818E-15, 29.00000000000000000 ) ) ;
#159 = DIRECTION ( 'NONE',  ( -3.491481338843133355E-15, 1.224646799147353454E-16, -1.000000000000000000 ) ) ;
#160 = ADVANCED_FACE ( 'NONE', ( #228 ), #95, .T. ) ;
#161 = FACE_OUTER_BOUND ( 'NONE', #336, .T. ) ;
#162 = VERTEX_POINT ( 'NONE', #291 ) ;
#163 = ORIENTED_EDGE ( 'NONE', *, *, #184, .T. ) ;
#164 = CIRCLE ( 'NONE', #310, 4.499999999999992895 ) ;
#165 = ADVANCED_BREP_SHAPE_REPRESENTATION ( '35325', ( #279, #64, #132 ), #11 ) ;
#166 = FACE_OUTER_BOUND ( 'NONE', #19, .T. ) ;
#167 = EDGE_LOOP ( 'NONE', ( #70, #105, #114, #304 ) ) ;
#168 = ORIENTED_EDGE ( 'NONE', *, *, #218, .F. ) ;
#169 = CARTESIAN_POINT ( 'NONE',  ( 9.440521373612154214E-15, -3.311289152216124919E-16, 2.703872785624044983 ) ) ;
#170 = APPROVAL_ROLE ( '' ) ;
#171 = LOCAL_TIME ( 9, 22, 2.000000000000000000, #312 ) ;
#172 = ORIENTED_EDGE ( 'NONE', *, *, #269, .T. ) ;
#173 = DIRECTION ( 'NONE',  ( -3.491481338843133355E-15, 1.224646799147353454E-16, -1.000000000000000000 ) ) ;
#174 = ADVANCED_FACE ( 'NONE', ( #271 ), #31, .T. ) ;
#175 = AXIS2_PLACEMENT_3D ( 'NONE', #169, #49, #260 ) ;
#176 = ORIENTED_EDGE ( 'NONE', *, *, #208, .T. ) ;
#177 = EDGE_CURVE ( 'NONE', #264, #288, #60, .T. ) ;
#178 = DATE_AND_TIME ( #71, #17 ) ;
#179 = FACE_OUTER_BOUND ( 'NONE', #131, .T. ) ;
#180 =( NAMED_UNIT ( * ) SI_UNIT ( $, .STERADIAN. ) SOLID_ANGLE_UNIT ( ) );
#181 = DATE_AND_TIME ( #229, #198 ) ;
#182 = AXIS2_PLACEMENT_3D ( 'NONE', #287, #200, #66 ) ;
#183 = VERTEX_POINT ( 'NONE', #43 ) ;
#184 = EDGE_CURVE ( 'NONE', #240, #186, #77, .T. ) ;
#185 = ORIENTED_EDGE ( 'NONE', *, *, #30, .F. ) ;
#186 = VERTEX_POINT ( 'NONE', #86 ) ;
#187 = DIRECTION ( 'NONE',  ( 1.903218546456022717E-15, 0.8571673007021097801, 0.5150380749100585964 ) ) ;
#188 = VECTOR ( 'NONE', #53, 1000.000000000000000 ) ;
#189 = DIRECTION ( 'NONE',  ( -3.491481338843133355E-15, 1.224646799147353454E-16, -1.000000000000000000 ) ) ;
#190 = DIRECTION ( 'NONE',  ( 3.491481338843133355E-15, -1.224646799147353454E-16, 1.000000000000000000 ) ) ;
#191 = VERTEX_POINT ( 'NONE', #282 ) ;
#192 = DATE_AND_TIME ( #309, #128 ) ;
#193 = CIRCLE ( 'NONE', #145, 4.499999999999989342 ) ;
#194 = COORDINATED_UNIVERSAL_TIME_OFFSET ( 1, 0, .AHEAD. ) ;
#195 = PRODUCT_DEFINITION ( 'UNKNOWN', '', #102, #136 ) ;
#196 = AXIS2_PLACEMENT_3D ( 'NONE', #223, #46, #37 ) ;
#197 = CARTESIAN_POINT ( 'NONE',  ( 1.012529588264508673E-13, 3.374459510989170860E-32, 29.00000000000000000 ) ) ;
#198 = LOCAL_TIME ( 9, 22, 2.000000000000000000, #296 ) ;
#199 = CARTESIAN_POINT ( 'NONE',  ( 9.440521373612152637E-15, -4.499999999999989342, 2.703872785624044539 ) ) ;
#200 = DIRECTION ( 'NONE',  ( -3.491481338843133355E-15, 1.224646799147353454E-16, -1.000000000000000000 ) ) ;
#201 = CARTESIAN_POINT ( 'NONE',  ( 0.0000000000000000000, 0.0000000000000000000, 0.0000000000000000000 ) ) ;
#202 = DIRECTION ( 'NONE',  ( -2.382254525458685521E-15, -0.7071067811865558994, -0.7071067811865392461 ) ) ;
#203 = DATE_TIME_ROLE ( 'classification_date' ) ;
#204 = ORIENTED_EDGE ( 'NONE', *, *, #233, .T. ) ;
#205 = CIRCLE ( 'NONE', #307, 4.500000000000000000 ) ;
#206 = EDGE_CURVE ( 'NONE', #240, #241, #205, .T. ) ;
#207 = CARTESIAN_POINT ( 'NONE',  ( 2.904912473917487961E-13, -1.018906136890598452E-14, 83.20000000000001705 ) ) ;
#208 = EDGE_CURVE ( 'NONE', #59, #191, #305, .T. ) ;
#209 = CC_DESIGN_APPROVAL ( #44, ( #195 ) ) ;
#210 = DIRECTION ( 'NONE',  ( 0.0000000000000000000, 1.000000000000000000, 0.0000000000000000000 ) ) ;
#211 = AXIS2_PLACEMENT_3D ( 'NONE', #63, #224, #319 ) ;
#212 = ORIENTED_EDGE ( 'NONE', *, *, #308, .T. ) ;
#213 = CC_DESIGN_APPROVAL ( #246, ( #102 ) ) ;
#214 = EDGE_CURVE ( 'NONE', #288, #191, #275, .T. ) ;
#215 = CARTESIAN_POINT ( 'NONE',  ( 2.923899451149363601E-13, -3.700000000000009504, 84.00000000000000000 ) ) ;
#216 = APPROVAL_STATUS ( 'not_yet_approved' ) ;
#217 = DATE_TIME_ROLE ( 'creation_date' ) ;
#218 = EDGE_CURVE ( 'NONE', #288, #264, #54, .T. ) ;
#219 = PERSON_AND_ORGANIZATION_ROLE ( 'design_supplier' ) ;
#220 = CLOSED_SHELL ( 'NONE', ( #152, #55, #121, #160, #273 ) ) ;
#221 = APPROVAL_STATUS ( 'not_yet_approved' ) ;
#222 = FACE_OUTER_BOUND ( 'NONE', #147, .T. ) ;
#223 = CARTESIAN_POINT ( 'NONE',  ( 2.932844324628232018E-13, 2.774555597924421795E-32, 84.00000000000000000 ) ) ;
#224 = DIRECTION ( 'NONE',  ( -3.491481338843133355E-15, 1.224646799147353454E-16, -1.000000000000000000 ) ) ;
#225 = DIRECTION ( 'NONE',  ( -3.491481338843133355E-15, 1.224646799147353454E-16, -1.000000000000000000 ) ) ;
#226 = VECTOR ( 'NONE', #10, 1000.000000000000000 ) ;
#227 = DIRECTION ( 'NONE',  ( -4.275831445896959482E-31, -1.000000000000000000, -1.224646799147353454E-16 ) ) ;
#228 = FACE_OUTER_BOUND ( 'NONE', #167, .T. ) ;
#229 = CALENDAR_DATE ( 2021, 3, 9 ) ;
#230 = DIRECTION ( 'NONE',  ( 0.0000000000000000000, 1.000000000000000000, 0.0000000000000000000 ) ) ;
#231 = DIRECTION ( 'NONE',  ( 0.0000000000000000000, 1.000000000000000000, 0.0000000000000000000 ) ) ;
#232 = ORIENTED_EDGE ( 'NONE', *, *, #206, .T. ) ;
#233 = EDGE_CURVE ( 'NONE', #191, #183, #285, .T. ) ;
#234 = CARTESIAN_POINT ( 'NONE',  ( 1.012529588264508673E-13, -3.551475717527324818E-15, 29.00000000000000000 ) ) ;
#235 = CARTESIAN_POINT ( 'NONE',  ( 9.440521373612154214E-15, -3.311289152216124919E-16, 2.703872785624044983 ) ) ;
#236 = ORIENTED_EDGE ( 'NONE', *, *, #321, .T. ) ;
#237 = VECTOR ( 'NONE', #258, 1000.000000000000000 ) ;
#238 = CARTESIAN_POINT ( 'NONE',  ( 0.0000000000000000000, 0.0000000000000000000, 0.0000000000000000000 ) ) ;
#239 = LINE ( 'NONE', #133, #84 ) ;
#240 = VERTEX_POINT ( 'NONE', #334 ) ;
#241 = VERTEX_POINT ( 'NONE', #157 ) ;
#242 = ORIENTED_EDGE ( 'NONE', *, *, #293, .T. ) ;
#243 = CIRCLE ( 'NONE', #38, 3.699999999999999289 ) ;
#244 = ORIENTED_EDGE ( 'NONE', *, *, #332, .T. ) ;
#245 = DATE_AND_TIME ( #62, #171 ) ;
#246 = APPROVAL ( #216, 'UNSPECIFIED' ) ;
#247 = VECTOR ( 'NONE', #173, 1000.000000000000000 ) ;
#248 = CC_DESIGN_PERSON_AND_ORGANIZATION_ASSIGNMENT ( #306, #50, ( #138 ) ) ;
#249 = EDGE_LOOP ( 'NONE', ( #80, #176, #204 ) ) ;
#250 = DIRECTION ( 'NONE',  ( 0.0000000000000000000, 1.000000000000000000, 0.0000000000000000000 ) ) ;
#251 = DIRECTION ( 'NONE',  ( -3.491481338843133355E-15, 1.224646799147353454E-16, -1.000000000000000000 ) ) ;
#252 = ADVANCED_FACE ( 'NONE', ( #179 ), #328, .F. ) ;
#253 = ORIENTED_EDGE ( 'NONE', *, *, #115, .F. ) ;
#254 = APPLICATION_CONTEXT ( 'configuration controlled 3d designs of mechanical parts and assemblies' ) ;
#255 = CONICAL_SURFACE ( 'NONE', #104, 4.499999999999989342, 1.029744258676649649 ) ;
#256 = ORIENTED_EDGE ( 'NONE', *, *, #214, .F. ) ;
#257 = DIRECTION ( 'NONE',  ( -4.275831445896959482E-31, -1.000000000000000000, -1.224646799147353454E-16 ) ) ;
#258 = DIRECTION ( 'NONE',  ( -3.491481338843133355E-15, 1.224646799147353454E-16, -1.000000000000000000 ) ) ;
#259 = FACE_OUTER_BOUND ( 'NONE', #108, .T. ) ;
#260 = DIRECTION ( 'NONE',  ( 3.423875456688427274E-31, 1.000000000000000000, 9.637352644315617430E-17 ) ) ;
#261 = DIRECTION ( 'NONE',  ( 3.491481338843133355E-15, -1.224646799147353454E-16, 1.000000000000000000 ) ) ;
#262 = CONICAL_SURFACE ( 'NONE', #141, 4.499999999999989342, 1.029744258676649649 ) ;
#263 = CARTESIAN_POINT ( 'NONE',  ( 2.904912473917487961E-13, -1.018906136890598452E-14, 83.20000000000001705 ) ) ;
#264 = VERTEX_POINT ( 'NONE', #149 ) ;
#265 = CYLINDRICAL_SURFACE ( 'NONE', #211, 4.499999999999991118 ) ;
#266 = ORIENTED_EDGE ( 'NONE', *, *, #329, .T. ) ;
#267 = AXIS2_PLACEMENT_3D ( 'NONE', #324, #124, #103 ) ;
#268 = CIRCLE ( 'NONE', #78, 4.499999999999992895 ) ;
#269 = EDGE_CURVE ( 'NONE', #59, #183, #153, .T. ) ;
#270 = CYLINDRICAL_SURFACE ( 'NONE', #298, 4.499999999999996447 ) ;
#271 = FACE_OUTER_BOUND ( 'NONE', #82, .T. ) ;
#272 = APPROVAL_ROLE ( '' ) ;
#273 = ADVANCED_FACE ( 'NONE', ( #161 ), #299, .T. ) ;
#274 = AXIS2_PLACEMENT_3D ( 'NONE', #284, #335, #276 ) ;
#275 = LINE ( 'NONE', #20, #237 ) ;
#276 = DIRECTION ( 'NONE',  ( 0.0000000000000000000, 1.000000000000000000, 0.0000000000000000000 ) ) ;
#277 = APPROVAL_PERSON_ORGANIZATION ( #9, #246, #87 ) ;
#278 = ORIENTED_EDGE ( 'NONE', *, *, #293, .F. ) ;
#279 = MANIFOLD_SOLID_BREP ( 'Corps-Déplacer/Copier1[1]', #313 ) ;
#280 = MECHANICAL_CONTEXT ( 'NONE', #155, 'mechanical' ) ;
#281 = DIRECTION ( 'NONE',  ( 0.0000000000000000000, 1.000000000000000000, 0.0000000000000000000 ) ) ;
#282 = CARTESIAN_POINT ( 'NONE',  ( 9.991612433228462381E-15, 4.499999999999989342, 2.703872785624045427 ) ) ;
#283 = APPROVAL_DATE_TIME ( #245, #44 ) ;
#284 = CARTESIAN_POINT ( 'NONE',  ( 2.932844324628232018E-13, -1.028703311283776980E-14, 84.00000000000000000 ) ) ;
#285 = CIRCLE ( 'NONE', #175, 4.499999999999989342 ) ;
#286 = APPROVAL_DATE_TIME ( #192, #246 ) ;
#287 = CARTESIAN_POINT ( 'NONE',  ( 0.0000000000000000000, 0.0000000000000000000, 0.0000000000000000000 ) ) ;
#288 = VERTEX_POINT ( 'NONE', #294 ) ;
#289 = DATE_AND_TIME ( #143, #2 ) ;
#290 = VECTOR ( 'NONE', #187, 999.9999999999998863 ) ;
#291 = CARTESIAN_POINT ( 'NONE',  ( 2.932844324628232018E-13, 3.699999999999989075, 84.00000000000000000 ) ) ;
#292 = COORDINATED_UNIVERSAL_TIME_OFFSET ( 1, 0, .AHEAD. ) ;
#293 = EDGE_CURVE ( 'NONE', #33, #240, #101, .T. ) ;
#294 = CARTESIAN_POINT ( 'NONE',  ( 1.012529588264508673E-13, 4.499999999999989342, 29.00000000000000000 ) ) ;
#295 = DIRECTION ( 'NONE',  ( 4.275831445896959482E-31, 1.000000000000000000, 1.224646799147353207E-16 ) ) ;
#296 = COORDINATED_UNIVERSAL_TIME_OFFSET ( 1, 0, .AHEAD. ) ;
#297 = ORIENTED_EDGE ( 'NONE', *, *, #301, .T. ) ;
#298 = AXIS2_PLACEMENT_3D ( 'NONE', #35, #225, #320 ) ;
#299 = PLANE ( 'NONE',  #74 ) ;
#300 = DIRECTION ( 'NONE',  ( 0.0000000000000000000, 1.000000000000000000, 0.0000000000000000000 ) ) ;
#301 = EDGE_CURVE ( 'NONE', #186, #34, #268, .T. ) ;
#302 = APPROVAL_PERSON_ORGANIZATION ( #91, #44, #170 ) ;
#303 = CC_DESIGN_SECURITY_CLASSIFICATION ( #88, ( #102 ) ) ;
#304 = ORIENTED_EDGE ( 'NONE', *, *, #329, .F. ) ;
#305 = LINE ( 'NONE', #27, #290 ) ;
#306 = PERSON_AND_ORGANIZATION ( #12, #118 ) ;
#307 = AXIS2_PLACEMENT_3D ( 'NONE', #263, #135, #210 ) ;
#308 = EDGE_CURVE ( 'NONE', #33, #162, #48, .T. ) ;
#309 = CALENDAR_DATE ( 2021, 3, 9 ) ;
#310 = AXIS2_PLACEMENT_3D ( 'NONE', #158, #251, #325 ) ;
#311 = ORIENTED_EDGE ( 'NONE', *, *, #332, .F. ) ;
#312 = COORDINATED_UNIVERSAL_TIME_OFFSET ( 1, 0, .AHEAD. ) ;
#313 = CLOSED_SHELL ( 'NONE', ( #116, #58, #98, #174, #41, #252 ) ) ;
#314 = PERSON_AND_ORGANIZATION ( #12, #118 ) ;
#315 = CC_DESIGN_PERSON_AND_ORGANIZATION_ASSIGNMENT ( #112, #219, ( #102 ) ) ;
#316 =( NAMED_UNIT ( * ) PLANE_ANGLE_UNIT ( ) SI_UNIT ( $, .RADIAN. ) );
#317 = FACE_OUTER_BOUND ( 'NONE', #3, .T. ) ;
#318 = FACE_OUTER_BOUND ( 'NONE', #90, .T. ) ;
#319 = DIRECTION ( 'NONE',  ( 4.275831445896959482E-31, 1.000000000000000000, 1.224646799147353207E-16 ) ) ;
#320 = DIRECTION ( 'NONE',  ( 4.275831445896959482E-31, 1.000000000000000000, 1.224646799147353207E-16 ) ) ;
#321 = EDGE_CURVE ( 'NONE', #34, #186, #164, .T. ) ;
#322 = CARTESIAN_POINT ( 'NONE',  ( 2.937375517785077547E-13, -3.700000000000009504, 84.00000000000000000 ) ) ;
#323 = CARTESIAN_POINT ( 'NONE',  ( 1.012529588264508673E-13, -3.551475717527324818E-15, 29.00000000000000000 ) ) ;
#324 = CARTESIAN_POINT ( 'NONE',  ( 2.932844324628232018E-13, -1.028703311283776980E-14, 84.00000000000000000 ) ) ;
#325 = DIRECTION ( 'NONE',  ( 0.0000000000000000000, 1.000000000000000000, 0.0000000000000000000 ) ) ;
#326 = AXIS2_PLACEMENT_3D ( 'NONE', #207, #129, #231 ) ;
#327 = ORIENTED_EDGE ( 'NONE', *, *, #218, .T. ) ;
#328 = PLANE ( 'NONE',  #196 ) ;
#329 = EDGE_CURVE ( 'NONE', #183, #191, #193, .T. ) ;
#330 = ORIENTED_EDGE ( 'NONE', *, *, #321, .F. ) ;
#331 = DIRECTION ( 'NONE',  ( 0.0000000000000000000, 1.000000000000000000, 0.0000000000000000000 ) ) ;
#332 = EDGE_CURVE ( 'NONE', #241, #240, #94, .T. ) ;
#333 = DIRECTION ( 'NONE',  ( -3.491481338843133355E-15, 1.224646799147353454E-16, -1.000000000000000000 ) ) ;
#334 = CARTESIAN_POINT ( 'NONE',  ( 1.964231941687159947E-13, -4.500000000000009770, 83.20000000000001705 ) ) ;
#335 = DIRECTION ( 'NONE',  ( -3.491481338843133355E-15, 1.224646799147353454E-16, -1.000000000000000000 ) ) ;
#336 = EDGE_LOOP ( 'NONE', ( #168, #40 ) ) ;
#337 = LINE ( 'NONE', #97, #247 ) ;
ENDSEC;
END-ISO-10303-21;
