ISO-10303-21;
HEADER;
FILE_DESCRIPTION (( 'STEP AP203' ),
    '1' );
FILE_NAME ('35299.step',
    '2021-12-06T12:59:08',
    ( '' ),
    ( '' ),
    'SwSTEP 2.0',
    'SolidWorks 2019',
    '' );
FILE_SCHEMA (( 'CONFIG_CONTROL_DESIGN' ));
ENDSEC;

DATA;
#1 = DIRECTION ( 'NONE',  ( 1.000000000000000000, 0.0000000000000000000, 0.0000000000000000000 ) ) ;
#2 = AXIS2_PLACEMENT_3D ( 'NONE', #36, #80, #134 ) ;
#3 = CIRCLE ( 'NONE', #93, 16.00000000000000000 ) ;
#4 = COORDINATED_UNIVERSAL_TIME_OFFSET ( 1, 0, .AHEAD. ) ;
#5 = LOCAL_TIME ( 13, 59, 8.000000000000000000, #4 ) ;
#6 = DATE_AND_TIME ( #77, #163 ) ;
#7 = DESIGN_CONTEXT ( 'detailed design', #20, 'design' ) ;
#8 = CC_DESIGN_DATE_AND_TIME_ASSIGNMENT ( #19, #88, ( #160 ) ) ;
#9 = CYLINDRICAL_SURFACE ( 'NONE', #83, 80.00000000000000000 ) ;
#10 = DIRECTION ( 'NONE',  ( -3.491481338843133355E-15, -2.516686788863082584E-16, -1.000000000000000000 ) ) ;
#11 = CARTESIAN_POINT ( 'NONE',  ( 5.237222008264769453E-15, 3.775030183294673919E-16, 1.500000000000019984 ) ) ;
#12 = DIRECTION ( 'NONE',  ( -8.786964959028501104E-31, 1.000000000000000000, -2.516686788863082584E-16 ) ) ;
#13 = CARTESIAN_POINT ( 'NONE',  ( 0.0000000000000000000, 0.0000000000000000000, 0.0000000000000000000 ) ) ;
#14 = LOCAL_TIME ( 13, 59, 8.000000000000000000, #133 ) ;
#15 = EDGE_CURVE ( 'NONE', #154, #154, #3, .T. ) ;
#16 = DIRECTION ( 'NONE',  ( -8.786964959028499352E-31, 1.000000000000000000, -2.516686788863082091E-16 ) ) ;
#17 = APPROVAL_ROLE ( '' ) ;
#18 = PRODUCT ( '35299', '35299', '', ( #167 ) ) ;
#19 = DATE_AND_TIME ( #34, #14 ) ;
#20 = APPLICATION_CONTEXT ( 'configuration controlled 3d designs of mechanical parts and assemblies' ) ;
#21 = LOCAL_TIME ( 13, 59, 8.000000000000000000, #76 ) ;
#22 = ORIENTED_EDGE ( 'NONE', *, *, #118, .F. ) ;
#23 = ORIENTED_EDGE ( 'NONE', *, *, #118, .T. ) ;
#24 = ORIENTED_EDGE ( 'NONE', *, *, #32, .F. ) ;
#25 = CALENDAR_DATE ( 2021, 6, 12 ) ;
#26 = AXIS2_PLACEMENT_3D ( 'NONE', #162, #70, #124 ) ;
#27 = ADVANCED_FACE ( 'NONE', ( #110, #149 ), #135, .T. ) ;
#28 = CARTESIAN_POINT ( 'NONE',  ( 0.0000000000000000000, 80.00000000000000000, 0.0000000000000000000 ) ) ;
#29 = AXIS2_PLACEMENT_3D ( 'NONE', #43, #62, #1 ) ;
#30 = CLOSED_SHELL ( 'NONE', ( #125, #42, #27, #148 ) ) ;
#31 = COORDINATED_UNIVERSAL_TIME_OFFSET ( 1, 0, .AHEAD. ) ;
#32 = EDGE_CURVE ( 'NONE', #169, #169, #116, .T. ) ;
#33 = SECURITY_CLASSIFICATION_LEVEL ( 'unclassified' ) ;
#34 = CALENDAR_DATE ( 2021, 6, 12 ) ;
#35 = PERSON_AND_ORGANIZATION_ROLE ( 'design_supplier' ) ;
#36 = CARTESIAN_POINT ( 'NONE',  ( 5.237222008264713444E-15, 3.775030183294632997E-16, 1.500000000000003775 ) ) ;
#37 = EDGE_LOOP ( 'NONE', ( #23 ) ) ;
#38 = APPLICATION_CONTEXT ( 'configuration controlled 3d designs of mechanical parts and assemblies' ) ;
#39 = APPROVAL_ROLE ( '' ) ;
#40 = EDGE_CURVE ( 'NONE', #137, #137, #109, .T. ) ;
#41 =( LENGTH_UNIT ( ) NAMED_UNIT ( * ) SI_UNIT ( .MILLI., .METRE. ) );
#42 = ADVANCED_FACE ( 'NONE', ( #67, #122 ), #9, .T. ) ;
#43 = CARTESIAN_POINT ( 'NONE',  ( 0.0000000000000000000, 0.0000000000000000000, 0.0000000000000000000 ) ) ;
#44 = ORGANIZATION ( 'UNSPECIFIED', 'UNSPECIFIED', '' ) ;
#45 = UNCERTAINTY_MEASURE_WITH_UNIT (LENGTH_MEASURE( 1.000000000000000082E-05 ), #41, 'distance_accuracy_value', 'NONE');
#46 = DIRECTION ( 'NONE',  ( -8.786964959028499352E-31, 1.000000000000000000, -2.516686788863082091E-16 ) ) ;
#47 = SECURITY_CLASSIFICATION ( '', '', #33 ) ;
#48 = DIRECTION ( 'NONE',  ( -8.762981246961923131E-31, 1.000000000000000000, -2.520770051028797809E-16 ) ) ;
#49 = APPROVAL_STATUS ( 'not_yet_approved' ) ;
#50 = CYLINDRICAL_SURFACE ( 'NONE', #113, 16.00000000000000000 ) ;
#51 = DATE_AND_TIME ( #25, #150 ) ;
#52 = FACE_OUTER_BOUND ( 'NONE', #37, .T. ) ;
#53 = DIRECTION ( 'NONE',  ( -3.491481338843133355E-15, -2.516686788863082584E-16, -1.000000000000000000 ) ) ;
#54 = APPROVAL_ROLE ( '' ) ;
#55 = ADVANCED_BREP_SHAPE_REPRESENTATION ( '35299', ( #159, #29 ), #105 ) ;
#56 = CALENDAR_DATE ( 2021, 6, 12 ) ;
#57 = CIRCLE ( 'NONE', #158, 80.00000000000000000 ) ;
#58 = CC_DESIGN_DATE_AND_TIME_ASSIGNMENT ( #6, #121, ( #47 ) ) ;
#59 = EDGE_LOOP ( 'NONE', ( #107 ) ) ;
#60 =( NAMED_UNIT ( * ) PLANE_ANGLE_UNIT ( ) SI_UNIT ( $, .RADIAN. ) );
#61 = CC_DESIGN_APPROVAL ( #146, ( #160 ) ) ;
#62 = DIRECTION ( 'NONE',  ( 0.0000000000000000000, 0.0000000000000000000, 1.000000000000000000 ) ) ;
#63 = PRODUCT_RELATED_PRODUCT_CATEGORY ( 'detail', '', ( #18 ) ) ;
#64 = APPROVAL_STATUS ( 'not_yet_approved' ) ;
#65 = PRODUCT_DEFINITION_SHAPE ( 'NONE', 'NONE',  #160 ) ;
#66 = PERSON_AND_ORGANIZATION_ROLE ( 'creator' ) ;
#67 = FACE_OUTER_BOUND ( 'NONE', #59, .T. ) ;
#68 = APPROVAL_PERSON_ORGANIZATION ( #79, #140, #54 ) ;
#69 = CARTESIAN_POINT ( 'NONE',  ( 1.405914393444560177E-29, 1.013393982918075901E-30, 4.026698862180932134E-15 ) ) ;
#70 = DIRECTION ( 'NONE',  ( 3.491481338843133355E-15, 2.516686788863082584E-16, 1.000000000000000000 ) ) ;
#71 = EDGE_LOOP ( 'NONE', ( #147 ) ) ;
#72 = CARTESIAN_POINT ( 'NONE',  ( 2.811828786889120353E-29, 16.00000000000000000, 8.053397724361864269E-15 ) ) ;
#73 = APPLICATION_PROTOCOL_DEFINITION ( 'international standard', 'config_control_design', 1994, #38 ) ;
#74 = APPROVAL_PERSON_ORGANIZATION ( #119, #117, #17 ) ;
#75 = DIRECTION ( 'NONE',  ( -3.491481338843133355E-15, -2.516686788863082584E-16, -1.000000000000000000 ) ) ;
#76 = COORDINATED_UNIVERSAL_TIME_OFFSET ( 1, 0, .AHEAD. ) ;
#77 = CALENDAR_DATE ( 2021, 6, 12 ) ;
#78 = DATE_AND_TIME ( #106, #21 ) ;
#79 = PERSON_AND_ORGANIZATION ( #138, #44 ) ;
#80 = DIRECTION ( 'NONE',  ( -3.491481338843133355E-15, -2.516686788863082584E-16, -1.000000000000000000 ) ) ;
#81 = ORIENTED_EDGE ( 'NONE', *, *, #40, .T. ) ;
#82 = FACE_BOUND ( 'NONE', #95, .T. ) ;
#83 = AXIS2_PLACEMENT_3D ( 'NONE', #161, #10, #46 ) ;
#84 = FACE_OUTER_BOUND ( 'NONE', #71, .T. ) ;
#85 = CC_DESIGN_PERSON_AND_ORGANIZATION_ASSIGNMENT ( #103, #111, ( #18 ) ) ;
#86 = DIRECTION ( 'NONE',  ( -8.786964959028501104E-31, 1.000000000000000000, -2.516686788863082584E-16 ) ) ;
#87 = VERTEX_POINT ( 'NONE', #28 ) ;
#88 = DATE_TIME_ROLE ( 'creation_date' ) ;
#89 = CC_DESIGN_SECURITY_CLASSIFICATION ( #47, ( #120 ) ) ;
#90 = PERSON_AND_ORGANIZATION_ROLE ( 'creator' ) ;
#91 = DATE_AND_TIME ( #56, #5 ) ;
#92 = CC_DESIGN_PERSON_AND_ORGANIZATION_ASSIGNMENT ( #132, #144, ( #47 ) ) ;
#93 = AXIS2_PLACEMENT_3D ( 'NONE', #69, #94, #108 ) ;
#94 = DIRECTION ( 'NONE',  ( -3.491481338843133355E-15, -2.516686788863082584E-16, -1.000000000000000000 ) ) ;
#95 = EDGE_LOOP ( 'NONE', ( #152 ) ) ;
#96 = CC_DESIGN_APPROVAL ( #117, ( #120 ) ) ;
#97 = EDGE_LOOP ( 'NONE', ( #22 ) ) ;
#98 = DIRECTION ( 'NONE',  ( -3.491481338843133355E-15, -2.516686788863082584E-16, -1.000000000000000000 ) ) ;
#99 = PERSON_AND_ORGANIZATION ( #138, #44 ) ;
#100 = CC_DESIGN_PERSON_AND_ORGANIZATION_ASSIGNMENT ( #104, #35, ( #120 ) ) ;
#101 = FACE_OUTER_BOUND ( 'NONE', #123, .T. ) ;
#102 = CARTESIAN_POINT ( 'NONE',  ( 5.237222008264699244E-15, 16.00000000000000000, 1.499999999999999556 ) ) ;
#103 = PERSON_AND_ORGANIZATION ( #138, #44 ) ;
#104 = PERSON_AND_ORGANIZATION ( #138, #44 ) ;
#105 =( GEOMETRIC_REPRESENTATION_CONTEXT ( 3 ) GLOBAL_UNCERTAINTY_ASSIGNED_CONTEXT ( ( #45 ) ) GLOBAL_UNIT_ASSIGNED_CONTEXT ( ( #41, #60, #153 ) ) REPRESENTATION_CONTEXT ( 'NONE', 'WORKASPACE' ) );
#106 = CALENDAR_DATE ( 2021, 6, 12 ) ;
#107 = ORIENTED_EDGE ( 'NONE', *, *, #32, .T. ) ;
#108 = DIRECTION ( 'NONE',  ( -8.786964959028501104E-31, 1.000000000000000000, -2.516686788863082584E-16 ) ) ;
#109 = CIRCLE ( 'NONE', #2, 16.00000000000000000 ) ;
#110 = FACE_BOUND ( 'NONE', #145, .T. ) ;
#111 = PERSON_AND_ORGANIZATION_ROLE ( 'design_owner' ) ;
#112 = CARTESIAN_POINT ( 'NONE',  ( 7.029571967222800042E-29, 5.066969914590378978E-30, 2.013349431090465831E-14 ) ) ;
#113 = AXIS2_PLACEMENT_3D ( 'NONE', #13, #98, #12 ) ;
#114 = PERSON_AND_ORGANIZATION ( #138, #44 ) ;
#115 = PLANE ( 'NONE',  #130 ) ;
#116 = CIRCLE ( 'NONE', #139, 80.00000000000000000 ) ;
#117 = APPROVAL ( #64, 'UNSPECIFIED' ) ;
#118 = EDGE_CURVE ( 'NONE', #87, #87, #57, .T. ) ;
#119 = PERSON_AND_ORGANIZATION ( #138, #44 ) ;
#120 = PRODUCT_DEFINITION_FORMATION_WITH_SPECIFIED_SOURCE ( 'ANY', '', #18, .NOT_KNOWN. ) ;
#121 = DATE_TIME_ROLE ( 'classification_date' ) ;
#122 = FACE_OUTER_BOUND ( 'NONE', #97, .T. ) ;
#123 = EDGE_LOOP ( 'NONE', ( #151 ) ) ;
#124 = DIRECTION ( 'NONE',  ( 8.786964959028501104E-31, -1.000000000000000000, 2.516686788863082584E-16 ) ) ;
#125 = ADVANCED_FACE ( 'NONE', ( #52, #82 ), #115, .T. ) ;
#126 = APPROVAL_DATE_TIME ( #51, #146 ) ;
#127 = COORDINATED_UNIVERSAL_TIME_OFFSET ( 1, 0, .AHEAD. ) ;
#128 = APPROVAL_PERSON_ORGANIZATION ( #114, #146, #39 ) ;
#129 = CARTESIAN_POINT ( 'NONE',  ( 5.237222008264699244E-15, 80.00000000000000000, 1.499999999999999778 ) ) ;
#130 = AXIS2_PLACEMENT_3D ( 'NONE', #72, #75, #86 ) ;
#131 = CC_DESIGN_PERSON_AND_ORGANIZATION_ASSIGNMENT ( #142, #90, ( #120 ) ) ;
#132 = PERSON_AND_ORGANIZATION ( #138, #44 ) ;
#133 = COORDINATED_UNIVERSAL_TIME_OFFSET ( 1, 0, .AHEAD. ) ;
#134 = DIRECTION ( 'NONE',  ( -8.666684749742561339E-31, 1.000000000000000000, -2.574980159653073031E-16 ) ) ;
#135 = PLANE ( 'NONE',  #26 ) ;
#136 = EDGE_LOOP ( 'NONE', ( #24 ) ) ;
#137 = VERTEX_POINT ( 'NONE', #102 ) ;
#138 = PERSON ( 'UNSPECIFIED', 'UNSPECIFIED', 'UNSPECIFIED', ('UNSPECIFIED'), ('UNSPECIFIED'), ('UNSPECIFIED') ) ;
#139 = AXIS2_PLACEMENT_3D ( 'NONE', #11, #164, #48 ) ;
#140 = APPROVAL ( #143, 'UNSPECIFIED' ) ;
#141 = APPROVAL_DATE_TIME ( #91, #117 ) ;
#142 = PERSON_AND_ORGANIZATION ( #138, #44 ) ;
#143 = APPROVAL_STATUS ( 'not_yet_approved' ) ;
#144 = PERSON_AND_ORGANIZATION_ROLE ( 'classification_officer' ) ;
#145 = EDGE_LOOP ( 'NONE', ( #81 ) ) ;
#146 = APPROVAL ( #49, 'UNSPECIFIED' ) ;
#147 = ORIENTED_EDGE ( 'NONE', *, *, #15, .T. ) ;
#148 = ADVANCED_FACE ( 'NONE', ( #84, #101 ), #50, .F. ) ;
#149 = FACE_OUTER_BOUND ( 'NONE', #136, .T. ) ;
#150 = LOCAL_TIME ( 13, 59, 8.000000000000000000, #127 ) ;
#151 = ORIENTED_EDGE ( 'NONE', *, *, #40, .F. ) ;
#152 = ORIENTED_EDGE ( 'NONE', *, *, #15, .F. ) ;
#153 =( NAMED_UNIT ( * ) SI_UNIT ( $, .STERADIAN. ) SOLID_ANGLE_UNIT ( ) );
#154 = VERTEX_POINT ( 'NONE', #155 ) ;
#155 = CARTESIAN_POINT ( 'NONE',  ( 0.0000000000000000000, 16.00000000000000000, 0.0000000000000000000 ) ) ;
#156 = APPROVAL_DATE_TIME ( #78, #140 ) ;
#157 = SHAPE_DEFINITION_REPRESENTATION ( #65, #55 ) ;
#158 = AXIS2_PLACEMENT_3D ( 'NONE', #112, #53, #16 ) ;
#159 = MANIFOLD_SOLID_BREP ( 'Corps-Déplacer/Copier1', #30 ) ;
#160 = PRODUCT_DEFINITION ( 'UNKNOWN', '', #120, #7 ) ;
#161 = CARTESIAN_POINT ( 'NONE',  ( 0.0000000000000000000, 0.0000000000000000000, 0.0000000000000000000 ) ) ;
#162 = CARTESIAN_POINT ( 'NONE',  ( 5.237222008264726065E-15, 16.00000000000000000, 1.500000000000007550 ) ) ;
#163 = LOCAL_TIME ( 13, 59, 8.000000000000000000, #31 ) ;
#164 = DIRECTION ( 'NONE',  ( -3.491481338843133355E-15, -2.516686788863082584E-16, -1.000000000000000000 ) ) ;
#165 = APPLICATION_PROTOCOL_DEFINITION ( 'international standard', 'config_control_design', 1994, #20 ) ;
#166 = CC_DESIGN_APPROVAL ( #140, ( #47 ) ) ;
#167 = MECHANICAL_CONTEXT ( 'NONE', #38, 'mechanical' ) ;
#168 = CC_DESIGN_PERSON_AND_ORGANIZATION_ASSIGNMENT ( #99, #66, ( #160 ) ) ;
#169 = VERTEX_POINT ( 'NONE', #129 ) ;
ENDSEC;
END-ISO-10303-21;
