ISO-10303-21;
HEADER;
FILE_DESCRIPTION (( 'STEP AP203' ),
    '1' );
FILE_NAME ('35294.step',
    '2021-12-06T12:59:07',
    ( '' ),
    ( '' ),
    'SwSTEP 2.0',
    'SolidWorks 2019',
    '' );
FILE_SCHEMA (( 'CONFIG_CONTROL_DESIGN' ));
ENDSEC;

DATA;
#1 = APPROVAL_DATE_TIME ( #75, #8 ) ;
#2 = AXIS2_PLACEMENT_3D ( 'NONE', #117, #167, #55 ) ;
#3 = CARTESIAN_POINT ( 'NONE',  ( 0.0000000000000000000, 0.0000000000000000000, 0.0000000000000000000 ) ) ;
#4 = CARTESIAN_POINT ( 'NONE',  ( 0.0000000000000000000, 62.50000000000000000, 0.0000000000000000000 ) ) ;
#5 = AXIS2_PLACEMENT_3D ( 'NONE', #3, #48, #103 ) ;
#6 = COORDINATED_UNIVERSAL_TIME_OFFSET ( 1, 0, .AHEAD. ) ;
#7 = ORIENTED_EDGE ( 'NONE', *, *, #131, .T. ) ;
#8 = APPROVAL ( #99, 'UNSPECIFIED' ) ;
#9 = PRODUCT_DEFINITION_FORMATION_WITH_SPECIFIED_SOURCE ( 'ANY', '', #157, .NOT_KNOWN. ) ;
#10 = COORDINATED_UNIVERSAL_TIME_OFFSET ( 1, 0, .AHEAD. ) ;
#11 = ORIENTED_EDGE ( 'NONE', *, *, #131, .F. ) ;
#12 = PERSON ( 'UNSPECIFIED', 'UNSPECIFIED', 'UNSPECIFIED', ('UNSPECIFIED'), ('UNSPECIFIED'), ('UNSPECIFIED') ) ;
#13 = DIRECTION ( 'NONE',  ( 0.0000000000000000000, 0.0000000000000000000, 1.000000000000000000 ) ) ;
#14 = AXIS2_PLACEMENT_3D ( 'NONE', #90, #130, #36 ) ;
#15 = CC_DESIGN_PERSON_AND_ORGANIZATION_ASSIGNMENT ( #168, #73, ( #116 ) ) ;
#16 = APPLICATION_CONTEXT ( 'configuration controlled 3d designs of mechanical parts and assemblies' ) ;
#17 = CC_DESIGN_APPROVAL ( #144, ( #149 ) ) ;
#18 = CARTESIAN_POINT ( 'NONE',  ( 4.832830727465673418E-30, 1.741770908140441394E-31, 1.384177733874694805E-15 ) ) ;
#19 = CARTESIAN_POINT ( 'NONE',  ( 1.047444401652942846E-14, 3.775030183294632504E-16, 3.000000000000007994 ) ) ;
#20 = VERTEX_POINT ( 'NONE', #65 ) ;
#21 = CC_DESIGN_PERSON_AND_ORGANIZATION_ASSIGNMENT ( #84, #30, ( #9 ) ) ;
#22 = SHAPE_DEFINITION_REPRESENTATION ( #88, #61 ) ;
#23 = FACE_BOUND ( 'NONE', #136, .T. ) ;
#24 = COORDINATED_UNIVERSAL_TIME_OFFSET ( 1, 0, .AHEAD. ) ;
#25 = CARTESIAN_POINT ( 'NONE',  ( 1.047444401652940480E-14, 3.775030183294624122E-16, 3.000000000000001332 ) ) ;
#26 = AXIS2_PLACEMENT_3D ( 'NONE', #74, #13, #82 ) ;
#27 = EDGE_LOOP ( 'NONE', ( #138 ) ) ;
#28 = CALENDAR_DATE ( 2021, 6, 12 ) ;
#29 = ORIENTED_EDGE ( 'NONE', *, *, #107, .F. ) ;
#30 = PERSON_AND_ORGANIZATION_ROLE ( 'creator' ) ;
#31 = VERTEX_POINT ( 'NONE', #4 ) ;
#32 = CIRCLE ( 'NONE', #34, 11.00000000000000000 ) ;
#33 = CYLINDRICAL_SURFACE ( 'NONE', #14, 62.50000000000000000 ) ;
#34 = AXIS2_PLACEMENT_3D ( 'NONE', #18, #91, #143 ) ;
#35 =( GEOMETRIC_REPRESENTATION_CONTEXT ( 3 ) GLOBAL_UNCERTAINTY_ASSIGNED_CONTEXT ( ( #121 ) ) GLOBAL_UNIT_ASSIGNED_CONTEXT ( ( #164, #163, #50 ) ) REPRESENTATION_CONTEXT ( 'NONE', 'WORKASPACE' ) );
#36 = DIRECTION ( 'NONE',  ( -4.393482479514248800E-31, 1.000000000000000000, -1.258343394431540799E-16 ) ) ;
#37 = VERTEX_POINT ( 'NONE', #114 ) ;
#38 = LOCAL_TIME ( 13, 59, 7.000000000000000000, #6 ) ;
#39 = APPLICATION_PROTOCOL_DEFINITION ( 'international standard', 'config_control_design', 1994, #16 ) ;
#40 = EDGE_LOOP ( 'NONE', ( #7 ) ) ;
#41 = COORDINATED_UNIVERSAL_TIME_OFFSET ( 1, 0, .AHEAD. ) ;
#42 = EDGE_LOOP ( 'NONE', ( #85 ) ) ;
#43 = ORIENTED_EDGE ( 'NONE', *, *, #77, .T. ) ;
#44 = PERSON_AND_ORGANIZATION_ROLE ( 'classification_officer' ) ;
#45 = CIRCLE ( 'NONE', #124, 62.50000000000000000 ) ;
#46 = CC_DESIGN_DATE_AND_TIME_ASSIGNMENT ( #95, #137, ( #149 ) ) ;
#47 = PRODUCT_RELATED_PRODUCT_CATEGORY ( 'detail', '', ( #157 ) ) ;
#48 = DIRECTION ( 'NONE',  ( -3.491481338843133355E-15, -1.258343394431540799E-16, -1.000000000000000000 ) ) ;
#49 = DIRECTION ( 'NONE',  ( -3.491481338843133355E-15, -1.258343394431540799E-16, -1.000000000000000000 ) ) ;
#50 =( NAMED_UNIT ( * ) SI_UNIT ( $, .STERADIAN. ) SOLID_ANGLE_UNIT ( ) );
#51 = DIRECTION ( 'NONE',  ( -3.491481338843133355E-15, -1.258343394431540799E-16, -1.000000000000000000 ) ) ;
#52 = PLANE ( 'NONE',  #104 ) ;
#53 = CIRCLE ( 'NONE', #158, 10.99999999999999645 ) ;
#54 = CALENDAR_DATE ( 2021, 6, 12 ) ;
#55 = DIRECTION ( 'NONE',  ( 4.393482479514248800E-31, -1.000000000000000000, 1.258343394431540799E-16 ) ) ;
#56 = MECHANICAL_CONTEXT ( 'NONE', #16, 'mechanical' ) ;
#57 = DATE_AND_TIME ( #28, #38 ) ;
#58 = APPROVAL_STATUS ( 'not_yet_approved' ) ;
#59 = APPROVAL_STATUS ( 'not_yet_approved' ) ;
#60 = APPROVAL ( #58, 'UNSPECIFIED' ) ;
#61 = ADVANCED_BREP_SHAPE_REPRESENTATION ( '35294', ( #62, #26 ), #35 ) ;
#62 = MANIFOLD_SOLID_BREP ( 'Corps-Déplacer/Copier1', #106 ) ;
#63 = CC_DESIGN_APPROVAL ( #8, ( #9 ) ) ;
#64 = CARTESIAN_POINT ( 'NONE',  ( 1.047444401652940007E-14, 10.99999999999999645, 3.000000000000000000 ) ) ;
#65 = CARTESIAN_POINT ( 'NONE',  ( 0.0000000000000000000, 11.00000000000000000, 0.0000000000000000000 ) ) ;
#66 = CC_DESIGN_PERSON_AND_ORGANIZATION_ASSIGNMENT ( #98, #139, ( #157 ) ) ;
#67 = DATE_TIME_ROLE ( 'creation_date' ) ;
#68 = PLANE ( 'NONE',  #2 ) ;
#69 = LOCAL_TIME ( 13, 59, 7.000000000000000000, #24 ) ;
#70 = APPROVAL_DATE_TIME ( #155, #144 ) ;
#71 = ORIENTED_EDGE ( 'NONE', *, *, #134, .F. ) ;
#72 = ADVANCED_FACE ( 'NONE', ( #23, #165 ), #68, .T. ) ;
#73 = PERSON_AND_ORGANIZATION_ROLE ( 'creator' ) ;
#74 = CARTESIAN_POINT ( 'NONE',  ( 0.0000000000000000000, 0.0000000000000000000, 0.0000000000000000000 ) ) ;
#75 = DATE_AND_TIME ( #151, #145 ) ;
#76 = LOCAL_TIME ( 13, 59, 7.000000000000000000, #10 ) ;
#77 = EDGE_CURVE ( 'NONE', #79, #79, #53, .T. ) ;
#78 = DIRECTION ( 'NONE',  ( -4.437342591868191405E-31, 1.000000000000000000, -1.249000902703301108E-16 ) ) ;
#79 = VERTEX_POINT ( 'NONE', #64 ) ;
#80 = CC_DESIGN_PERSON_AND_ORGANIZATION_ASSIGNMENT ( #119, #44, ( #149 ) ) ;
#81 = APPROVAL_PERSON_ORGANIZATION ( #152, #8, #140 ) ;
#82 = DIRECTION ( 'NONE',  ( 1.000000000000000000, 0.0000000000000000000, 0.0000000000000000000 ) ) ;
#83 = CALENDAR_DATE ( 2021, 6, 12 ) ;
#84 = PERSON_AND_ORGANIZATION ( #12, #156 ) ;
#85 = ORIENTED_EDGE ( 'NONE', *, *, #107, .T. ) ;
#86 = SECURITY_CLASSIFICATION_LEVEL ( 'unclassified' ) ;
#87 = CC_DESIGN_SECURITY_CLASSIFICATION ( #149, ( #9 ) ) ;
#88 = PRODUCT_DEFINITION_SHAPE ( 'NONE', 'NONE',  #116 ) ;
#89 = FACE_OUTER_BOUND ( 'NONE', #27, .T. ) ;
#90 = CARTESIAN_POINT ( 'NONE',  ( 0.0000000000000000000, 0.0000000000000000000, 0.0000000000000000000 ) ) ;
#91 = DIRECTION ( 'NONE',  ( -3.491481338843133355E-15, -1.258343394431540799E-16, -1.000000000000000000 ) ) ;
#92 = CARTESIAN_POINT ( 'NONE',  ( 2.745926549696405478E-29, 9.896425614434325566E-31, 7.864646215197129636E-15 ) ) ;
#93 = EDGE_LOOP ( 'NONE', ( #11 ) ) ;
#94 = ADVANCED_FACE ( 'NONE', ( #162, #161 ), #52, .T. ) ;
#95 = DATE_AND_TIME ( #109, #69 ) ;
#96 = EDGE_LOOP ( 'NONE', ( #29 ) ) ;
#97 = APPROVAL_PERSON_ORGANIZATION ( #153, #144, #112 ) ;
#98 = PERSON_AND_ORGANIZATION ( #12, #156 ) ;
#99 = APPROVAL_STATUS ( 'not_yet_approved' ) ;
#100 = DATE_AND_TIME ( #83, #142 ) ;
#101 = CC_DESIGN_APPROVAL ( #60, ( #116 ) ) ;
#102 = CC_DESIGN_DATE_AND_TIME_ASSIGNMENT ( #57, #67, ( #116 ) ) ;
#103 = DIRECTION ( 'NONE',  ( -4.393482479514248800E-31, 1.000000000000000000, -1.258343394431540799E-16 ) ) ;
#104 = AXIS2_PLACEMENT_3D ( 'NONE', #148, #51, #105 ) ;
#105 = DIRECTION ( 'NONE',  ( -4.393482479514248800E-31, 1.000000000000000000, -1.258343394431540799E-16 ) ) ;
#106 = CLOSED_SHELL ( 'NONE', ( #94, #123, #72, #141 ) ) ;
#107 = EDGE_CURVE ( 'NONE', #31, #31, #110, .T. ) ;
#108 = APPROVAL_DATE_TIME ( #100, #60 ) ;
#109 = CALENDAR_DATE ( 2021, 6, 12 ) ;
#110 = CIRCLE ( 'NONE', #113, 62.50000000000000000 ) ;
#111 = APPLICATION_PROTOCOL_DEFINITION ( 'international standard', 'config_control_design', 1994, #120 ) ;
#112 = APPROVAL_ROLE ( '' ) ;
#113 = AXIS2_PLACEMENT_3D ( 'NONE', #92, #147, #135 ) ;
#114 = CARTESIAN_POINT ( 'NONE',  ( 1.047444401652940007E-14, 62.50000000000000000, 3.000000000000000000 ) ) ;
#115 = DIRECTION ( 'NONE',  ( -4.202028969572152146E-31, 1.000000000000000000, -1.182766006347823355E-16 ) ) ;
#116 = PRODUCT_DEFINITION ( 'UNKNOWN', '', #9, #160 ) ;
#117 = CARTESIAN_POINT ( 'NONE',  ( 1.047444401652941111E-14, 10.99999999999999645, 3.000000000000003109 ) ) ;
#118 = PERSON_AND_ORGANIZATION ( #12, #156 ) ;
#119 = PERSON_AND_ORGANIZATION ( #12, #156 ) ;
#120 = APPLICATION_CONTEXT ( 'configuration controlled 3d designs of mechanical parts and assemblies' ) ;
#121 = UNCERTAINTY_MEASURE_WITH_UNIT (LENGTH_MEASURE( 1.000000000000000082E-05 ), #164, 'distance_accuracy_value', 'NONE');
#122 = CYLINDRICAL_SURFACE ( 'NONE', #5, 10.99999999999999822 ) ;
#123 = ADVANCED_FACE ( 'NONE', ( #146, #132 ), #33, .T. ) ;
#124 = AXIS2_PLACEMENT_3D ( 'NONE', #19, #125, #78 ) ;
#125 = DIRECTION ( 'NONE',  ( -3.491481338843133355E-15, -1.258343394431540799E-16, -1.000000000000000000 ) ) ;
#126 = PERSON_AND_ORGANIZATION_ROLE ( 'design_supplier' ) ;
#127 = ORIENTED_EDGE ( 'NONE', *, *, #134, .T. ) ;
#128 = PERSON_AND_ORGANIZATION ( #12, #156 ) ;
#129 = EDGE_LOOP ( 'NONE', ( #71 ) ) ;
#130 = DIRECTION ( 'NONE',  ( -3.491481338843133355E-15, -1.258343394431540799E-16, -1.000000000000000000 ) ) ;
#131 = EDGE_CURVE ( 'NONE', #37, #37, #45, .T. ) ;
#132 = FACE_OUTER_BOUND ( 'NONE', #96, .T. ) ;
#133 = FACE_OUTER_BOUND ( 'NONE', #150, .T. ) ;
#134 = EDGE_CURVE ( 'NONE', #20, #20, #32, .T. ) ;
#135 = DIRECTION ( 'NONE',  ( -4.393482479514248800E-31, 1.000000000000000000, -1.258343394431540799E-16 ) ) ;
#136 = EDGE_LOOP ( 'NONE', ( #43 ) ) ;
#137 = DATE_TIME_ROLE ( 'classification_date' ) ;
#138 = ORIENTED_EDGE ( 'NONE', *, *, #77, .F. ) ;
#139 = PERSON_AND_ORGANIZATION_ROLE ( 'design_owner' ) ;
#140 = APPROVAL_ROLE ( '' ) ;
#141 = ADVANCED_FACE ( 'NONE', ( #133, #89 ), #122, .F. ) ;
#142 = LOCAL_TIME ( 13, 59, 7.000000000000000000, #154 ) ;
#143 = DIRECTION ( 'NONE',  ( -4.393482479514248800E-31, 1.000000000000000000, -1.258343394431540799E-16 ) ) ;
#144 = APPROVAL ( #59, 'UNSPECIFIED' ) ;
#145 = LOCAL_TIME ( 13, 59, 7.000000000000000000, #41 ) ;
#146 = FACE_OUTER_BOUND ( 'NONE', #40, .T. ) ;
#147 = DIRECTION ( 'NONE',  ( -3.491481338843133355E-15, -1.258343394431540799E-16, -1.000000000000000000 ) ) ;
#148 = CARTESIAN_POINT ( 'NONE',  ( 1.131321738474919068E-29, 11.00000000000000000, 3.240234240661217514E-15 ) ) ;
#149 = SECURITY_CLASSIFICATION ( '', '', #86 ) ;
#150 = EDGE_LOOP ( 'NONE', ( #127 ) ) ;
#151 = CALENDAR_DATE ( 2021, 6, 12 ) ;
#152 = PERSON_AND_ORGANIZATION ( #12, #156 ) ;
#153 = PERSON_AND_ORGANIZATION ( #12, #156 ) ;
#154 = COORDINATED_UNIVERSAL_TIME_OFFSET ( 1, 0, .AHEAD. ) ;
#155 = DATE_AND_TIME ( #54, #76 ) ;
#156 = ORGANIZATION ( 'UNSPECIFIED', 'UNSPECIFIED', '' ) ;
#157 = PRODUCT ( '35294', '35294', '', ( #56 ) ) ;
#158 = AXIS2_PLACEMENT_3D ( 'NONE', #25, #49, #115 ) ;
#159 = CC_DESIGN_PERSON_AND_ORGANIZATION_ASSIGNMENT ( #118, #126, ( #9 ) ) ;
#160 = DESIGN_CONTEXT ( 'detailed design', #120, 'design' ) ;
#161 = FACE_BOUND ( 'NONE', #129, .T. ) ;
#162 = FACE_OUTER_BOUND ( 'NONE', #42, .T. ) ;
#163 =( NAMED_UNIT ( * ) PLANE_ANGLE_UNIT ( ) SI_UNIT ( $, .RADIAN. ) );
#164 =( LENGTH_UNIT ( ) NAMED_UNIT ( * ) SI_UNIT ( .MILLI., .METRE. ) );
#165 = FACE_OUTER_BOUND ( 'NONE', #93, .T. ) ;
#166 = APPROVAL_ROLE ( '' ) ;
#167 = DIRECTION ( 'NONE',  ( 3.491481338843133355E-15, 1.258343394431540799E-16, 1.000000000000000000 ) ) ;
#168 = PERSON_AND_ORGANIZATION ( #12, #156 ) ;
#169 = APPROVAL_PERSON_ORGANIZATION ( #128, #60, #166 ) ;
ENDSEC;
END-ISO-10303-21;
