ISO-10303-21;
HEADER;
FILE_DESCRIPTION (( 'STEP AP203' ),
    '1' );
FILE_NAME ('35250.step',
    '2021-11-01T09:16:06',
    ( '' ),
    ( '' ),
    'SwSTEP 2.0',
    'SolidWorks 2019',
    '' );
FILE_SCHEMA (( 'CONFIG_CONTROL_DESIGN' ));
ENDSEC;

DATA;
#1 = APPLICATION_PROTOCOL_DEFINITION ( 'international standard', 'config_control_design', 1994, #8 ) ;
#2 = AXIS2_PLACEMENT_3D ( 'NONE', #218, #54, #201 ) ;
#3 = CALENDAR_DATE ( 2021, 1, 11 ) ;
#4 = ORIENTED_EDGE ( 'NONE', *, *, #37, .T. ) ;
#5 = PERSON_AND_ORGANIZATION_ROLE ( 'classification_officer' ) ;
#6 = ORIENTED_EDGE ( 'NONE', *, *, #171, .F. ) ;
#7 = DATE_TIME_ROLE ( 'classification_date' ) ;
#8 = APPLICATION_CONTEXT ( 'configuration controlled 3d designs of mechanical parts and assemblies' ) ;
#9 = FACE_OUTER_BOUND ( 'NONE', #52, .T. ) ;
#10 = ADVANCED_FACE ( 'NONE', ( #176, #9 ), #179, .T. ) ;
#11 = CARTESIAN_POINT ( 'NONE',  ( 1.158347148098602978E-14, -4.045006805141017776E-16, 3.317638090205028867 ) ) ;
#12 = PERSON_AND_ORGANIZATION_ROLE ( 'creator' ) ;
#13 = AXIS2_PLACEMENT_3D ( 'NONE', #185, #181, #38 ) ;
#14 = DIRECTION ( 'NONE',  ( 3.491481338843133355E-15, -1.219242935835426903E-16, 1.000000000000000000 ) ) ;
#15 = DIRECTION ( 'NONE',  ( 3.491481338843133355E-15, -1.219242935835426903E-16, 1.000000000000000000 ) ) ;
#16 = APPLICATION_CONTEXT ( 'configuration controlled 3d designs of mechanical parts and assemblies' ) ;
#17 = ADVANCED_FACE ( 'NONE', ( #183 ), #164, .F. ) ;
#18 = CARTESIAN_POINT ( 'NONE',  ( 9.776147748760771817E-15, -3.413880220339194539E-16, 2.799999999999999378 ) ) ;
#19 = DIRECTION ( 'NONE',  ( 0.0000000000000000000, 1.000000000000000000, 0.0000000000000000000 ) ) ;
#20 = CIRCLE ( 'NONE', #2, 1.499999999999996003 ) ;
#21 = DATE_AND_TIME ( #3, #208 ) ;
#22 = CC_DESIGN_PERSON_AND_ORGANIZATION_ASSIGNMENT ( #210, #25, ( #242 ) ) ;
#23 =( LENGTH_UNIT ( ) NAMED_UNIT ( * ) SI_UNIT ( .MILLI., .METRE. ) );
#24 = VERTEX_POINT ( 'NONE', #65 ) ;
#25 = PERSON_AND_ORGANIZATION_ROLE ( 'creator' ) ;
#26 = MANIFOLD_SOLID_BREP ( 'Corps-Déplacer/Copier1[2]', #35 ) ;
#27 = ADVANCED_FACE ( 'NONE', ( #236, #205 ), #36, .F. ) ;
#28 = EDGE_LOOP ( 'NONE', ( #123 ) ) ;
#29 = EDGE_LOOP ( 'NONE', ( #46 ) ) ;
#30 = AXIS2_PLACEMENT_3D ( 'NONE', #115, #126, #233 ) ;
#31 = EDGE_LOOP ( 'NONE', ( #195 ) ) ;
#32 = ADVANCED_FACE ( 'NONE', ( #34, #130 ), #222, .T. ) ;
#33 = SECURITY_CLASSIFICATION_LEVEL ( 'unclassified' ) ;
#34 = FACE_OUTER_BOUND ( 'NONE', #102, .T. ) ;
#35 = CLOSED_SHELL ( 'NONE', ( #69, #32, #182 ) ) ;
#36 = TOROIDAL_SURFACE ( 'NONE', #91, 2.699999999999999734, 2.000000000000000000 ) ;
#37 = EDGE_CURVE ( 'NONE', #117, #117, #112, .T. ) ;
#38 = DIRECTION ( 'NONE',  ( 0.0000000000000000000, 1.000000000000000000, 0.0000000000000000000 ) ) ;
#39 = DIRECTION ( 'NONE',  ( 4.275831445896958607E-31, 1.000000000000000000, 1.224646799147353207E-16 ) ) ;
#40 = DIRECTION ( 'NONE',  ( 3.491481338843133355E-15, -1.219242935835426903E-16, 1.000000000000000000 ) ) ;
#41 = FACE_OUTER_BOUND ( 'NONE', #103, .T. ) ;
#42 = VERTEX_POINT ( 'NONE', #188 ) ;
#43 = COORDINATED_UNIVERSAL_TIME_OFFSET ( 1, 0, .AHEAD. ) ;
#44 = DIRECTION ( 'NONE',  ( 1.000000000000000000, 0.0000000000000000000, 0.0000000000000000000 ) ) ;
#45 = LOCAL_TIME ( 10, 16, 6.000000000000000000, #230 ) ;
#46 = ORIENTED_EDGE ( 'NONE', *, *, #162, .T. ) ;
#47 = CC_DESIGN_PERSON_AND_ORGANIZATION_ASSIGNMENT ( #63, #136, ( #234 ) ) ;
#48 = PERSON_AND_ORGANIZATION ( #206, #55 ) ;
#49 = EDGE_LOOP ( 'NONE', ( #196 ) ) ;
#50 = APPROVAL_ROLE ( '' ) ;
#51 = CALENDAR_DATE ( 2021, 1, 11 ) ;
#52 = EDGE_LOOP ( 'NONE', ( #216 ) ) ;
#53 = AXIS2_PLACEMENT_3D ( 'NONE', #187, #86, #189 ) ;
#54 = DIRECTION ( 'NONE',  ( -3.491481338843133355E-15, 1.224646799147353207E-16, -1.000000000000000000 ) ) ;
#55 = ORGANIZATION ( 'UNSPECIFIED', 'UNSPECIFIED', '' ) ;
#56 = CARTESIAN_POINT ( 'NONE',  ( 0.0000000000000000000, 0.0000000000000000000, 0.0000000000000000000 ) ) ;
#57 = FACE_OUTER_BOUND ( 'NONE', #88, .T. ) ;
#58 = CLOSED_SHELL ( 'NONE', ( #92, #74, #17, #10, #27, #191 ) ) ;
#59 = APPROVAL_PERSON_ORGANIZATION ( #70, #108, #50 ) ;
#60 = DIRECTION ( 'NONE',  ( 0.0000000000000000000, -1.000000000000000000, 0.0000000000000000000 ) ) ;
#61 = DIRECTION ( 'NONE',  ( -4.275831445896958607E-31, -1.000000000000000000, -1.224646799147353207E-16 ) ) ;
#62 = COORDINATED_UNIVERSAL_TIME_OFFSET ( 1, 0, .AHEAD. ) ;
#63 = PERSON_AND_ORGANIZATION ( #206, #55 ) ;
#64 = LOCAL_TIME ( 10, 16, 6.000000000000000000, #71 ) ;
#65 = CARTESIAN_POINT ( 'NONE',  ( 9.776147748760771817E-15, -0.7000000000000002887, 2.799999999999999378 ) ) ;
#66 = APPROVAL_PERSON_ORGANIZATION ( #48, #200, #137 ) ;
#67 = ORIENTED_EDGE ( 'NONE', *, *, #151, .T. ) ;
#68 = DATE_AND_TIME ( #134, #131 ) ;
#69 = ADVANCED_FACE ( 'NONE', ( #199 ), #239, .T. ) ;
#70 = PERSON_AND_ORGANIZATION ( #206, #55 ) ;
#71 = COORDINATED_UNIVERSAL_TIME_OFFSET ( 1, 0, .AHEAD. ) ;
#72 = DIRECTION ( 'NONE',  ( -4.256963957985705386E-31, -1.000000000000000000, -1.219242935835427642E-16 ) ) ;
#73 = APPROVAL_DATE_TIME ( #68, #128 ) ;
#74 = ADVANCED_FACE ( 'NONE', ( #219, #146 ), #241, .T. ) ;
#75 = PRODUCT_DEFINITION_SHAPE ( 'NONE', 'NONE',  #242 ) ;
#76 = DIRECTION ( 'NONE',  ( -4.256963957985708889E-31, -1.000000000000000000, -1.219242935835427149E-16 ) ) ;
#77 = FACE_OUTER_BOUND ( 'NONE', #49, .T. ) ;
#78 = AXIS2_PLACEMENT_3D ( 'NONE', #114, #14, #60 ) ;
#79 = CARTESIAN_POINT ( 'NONE',  ( -1.068955699180124799E-30, 3.749391872347842254E-32, -3.061610804811898009E-16 ) ) ;
#80 = ADVANCED_BREP_SHAPE_REPRESENTATION ( '35250', ( #180, #26, #148 ), #169 ) ;
#81 = PERSON_AND_ORGANIZATION ( #206, #55 ) ;
#82 = APPLICATION_PROTOCOL_DEFINITION ( 'international standard', 'config_control_design', 1994, #16 ) ;
#83 = VERTEX_POINT ( 'NONE', #214 ) ;
#84 = APPROVAL_PERSON_ORGANIZATION ( #81, #128, #226 ) ;
#85 = VERTEX_POINT ( 'NONE', #194 ) ;
#86 = DIRECTION ( 'NONE',  ( 3.491481338843133355E-15, -1.224646799147353207E-16, 1.000000000000000000 ) ) ;
#87 = AXIS2_PLACEMENT_3D ( 'NONE', #144, #184, #72 ) ;
#88 = EDGE_LOOP ( 'NONE', ( #229 ) ) ;
#89 = UNCERTAINTY_MEASURE_WITH_UNIT (LENGTH_MEASURE( 1.000000000000000082E-05 ), #23, 'distance_accuracy_value', 'NONE');
#90 = DIRECTION ( 'NONE',  ( 3.491481338843133355E-15, -1.219242935835426903E-16, 1.000000000000000000 ) ) ;
#91 = AXIS2_PLACEMENT_3D ( 'NONE', #152, #15, #166 ) ;
#92 = ADVANCED_FACE ( 'NONE', ( #223, #77 ), #133, .T. ) ;
#93 = CC_DESIGN_DATE_AND_TIME_ASSIGNMENT ( #139, #122, ( #242 ) ) ;
#94 = CC_DESIGN_SECURITY_CLASSIFICATION ( #186, ( #217 ) ) ;
#95 = DIRECTION ( 'NONE',  ( 0.0000000000000000000, -1.000000000000000000, 0.0000000000000000000 ) ) ;
#96 = CARTESIAN_POINT ( 'NONE',  ( 0.0000000000000000000, 0.0000000000000000000, 0.0000000000000000000 ) ) ;
#97 = DIRECTION ( 'NONE',  ( -3.491481338843133355E-15, 1.224646799147353207E-16, -1.000000000000000000 ) ) ;
#98 = LOCAL_TIME ( 10, 16, 6.000000000000000000, #43 ) ;
#99 = EDGE_CURVE ( 'NONE', #154, #154, #197, .T. ) ;
#100 = CARTESIAN_POINT ( 'NONE',  ( 0.0000000000000000000, 0.0000000000000000000, 0.0000000000000000000 ) ) ;
#101 = CC_DESIGN_APPROVAL ( #128, ( #217 ) ) ;
#102 = EDGE_LOOP ( 'NONE', ( #67 ) ) ;
#103 = EDGE_LOOP ( 'NONE', ( #104 ) ) ;
#104 = ORIENTED_EDGE ( 'NONE', *, *, #142, .F. ) ;
#105 = EDGE_LOOP ( 'NONE', ( #190 ) ) ;
#106 = EDGE_LOOP ( 'NONE', ( #4 ) ) ;
#107 = CARTESIAN_POINT ( 'NONE',  ( 1.326762908760390423E-13, -4.653657836759941941E-15, 38.00000000000000000 ) ) ;
#108 = APPROVAL ( #145, 'UNSPECIFIED' ) ;
#109 = AXIS2_PLACEMENT_3D ( 'NONE', #149, #178, #132 ) ;
#110 = PRODUCT_RELATED_PRODUCT_CATEGORY ( 'detail', '', ( #234 ) ) ;
#111 = DIRECTION ( 'NONE',  ( -4.275831445896958607E-31, -1.000000000000000000, -1.224646799147353207E-16 ) ) ;
#112 = CIRCLE ( 'NONE', #124, 1.199999999999995515 ) ;
#113 = DIRECTION ( 'NONE',  ( 3.491481338843133355E-15, -1.224646799147353207E-16, 1.000000000000000000 ) ) ;
#114 = CARTESIAN_POINT ( 'NONE',  ( 3.415016657627239550E-14, -1.192541082562948389E-15, 9.780996448798921605 ) ) ;
#115 = CARTESIAN_POINT ( 'NONE',  ( 1.326762908760390423E-13, 8.998558695971044381E-33, 38.00000000000000000 ) ) ;
#116 = CIRCLE ( 'NONE', #192, 0.6999999999999999556 ) ;
#117 = VERTEX_POINT ( 'NONE', #157 ) ;
#118 = CARTESIAN_POINT ( 'NONE',  ( 1.316288464743861212E-13, 1.499999999999991340, 37.69999999999999574 ) ) ;
#119 = CC_DESIGN_PERSON_AND_ORGANIZATION_ASSIGNMENT ( #237, #5, ( #186 ) ) ;
#120 = CALENDAR_DATE ( 2021, 1, 11 ) ;
#121 = EDGE_LOOP ( 'NONE', ( #215 ) ) ;
#122 = DATE_TIME_ROLE ( 'creation_date' ) ;
#123 = ORIENTED_EDGE ( 'NONE', *, *, #142, .T. ) ;
#124 = AXIS2_PLACEMENT_3D ( 'NONE', #107, #97, #19 ) ;
#125 = EDGE_LOOP ( 'NONE', ( #140 ) ) ;
#126 = DIRECTION ( 'NONE',  ( -3.491481338843133355E-15, 1.224646799147353207E-16, -1.000000000000000000 ) ) ;
#127 = AXIS2_PLACEMENT_3D ( 'NONE', #56, #150, #39 ) ;
#128 = APPROVAL ( #153, 'UNSPECIFIED' ) ;
#129 = DIRECTION ( 'NONE',  ( 0.0000000000000000000, -1.000000000000000000, 0.0000000000000000000 ) ) ;
#130 = FACE_OUTER_BOUND ( 'NONE', #173, .T. ) ;
#131 = LOCAL_TIME ( 10, 16, 6.000000000000000000, #62 ) ;
#132 = DIRECTION ( 'NONE',  ( 0.0000000000000000000, -1.000000000000000000, 0.0000000000000000000 ) ) ;
#133 = CYLINDRICAL_SURFACE ( 'NONE', #127, 1.499999999999994005 ) ;
#134 = CALENDAR_DATE ( 2021, 1, 11 ) ;
#135 = CIRCLE ( 'NONE', #87, 0.7000000000000000666 ) ;
#136 = PERSON_AND_ORGANIZATION_ROLE ( 'design_owner' ) ;
#137 = APPROVAL_ROLE ( '' ) ;
#138 = AXIS2_PLACEMENT_3D ( 'NONE', #79, #225, #61 ) ;
#139 = DATE_AND_TIME ( #120, #98 ) ;
#140 = ORIENTED_EDGE ( 'NONE', *, *, #174, .T. ) ;
#141 = CALENDAR_DATE ( 2021, 1, 11 ) ;
#142 = EDGE_CURVE ( 'NONE', #24, #24, #172, .T. ) ;
#143 = AXIS2_PLACEMENT_3D ( 'NONE', #11, #90, #95 ) ;
#144 = CARTESIAN_POINT ( 'NONE',  ( -3.077273592303789342E-30, 1.074599496582866250E-31, -8.813661863429613987E-16 ) ) ;
#145 = APPROVAL_STATUS ( 'not_yet_approved' ) ;
#146 = FACE_BOUND ( 'NONE', #106, .T. ) ;
#147 = APPROVAL_DATE_TIME ( #231, #108 ) ;
#148 = AXIS2_PLACEMENT_3D ( 'NONE', #100, #209, #44 ) ;
#149 = CARTESIAN_POINT ( 'NONE',  ( 2.111978082603086139E-14, -7.375134242322106561E-16, 6.048945641229944492 ) ) ;
#150 = DIRECTION ( 'NONE',  ( -3.491481338843133355E-15, 1.224646799147353207E-16, -1.000000000000000000 ) ) ;
#151 = EDGE_CURVE ( 'NONE', #83, #83, #135, .T. ) ;
#152 = CARTESIAN_POINT ( 'NONE',  ( 9.776147748760771817E-15, -4.336808689942017736E-16, 2.799999999999999378 ) ) ;
#153 = APPROVAL_STATUS ( 'not_yet_approved' ) ;
#154 = VERTEX_POINT ( 'NONE', #156 ) ;
#155 = AXIS2_PLACEMENT_3D ( 'NONE', #163, #40, #129 ) ;
#156 = CARTESIAN_POINT ( 'NONE',  ( 2.111978082603086139E-14, -1.499999999999994671, 6.048945641229944492 ) ) ;
#157 = CARTESIAN_POINT ( 'NONE',  ( 1.326762908760390423E-13, 1.199999999999991074, 38.00000000000000000 ) ) ;
#158 =( NAMED_UNIT ( * ) PLANE_ANGLE_UNIT ( ) SI_UNIT ( $, .RADIAN. ) );
#159 = CC_DESIGN_DATE_AND_TIME_ASSIGNMENT ( #177, #7, ( #186 ) ) ;
#160 = CIRCLE ( 'NONE', #143, 0.7681483474218596674 ) ;
#161 = PERSON_AND_ORGANIZATION ( #206, #55 ) ;
#162 = EDGE_CURVE ( 'NONE', #227, #227, #20, .T. ) ;
#163 = CARTESIAN_POINT ( 'NONE',  ( 9.776147748760771817E-15, -3.413880220339194539E-16, 2.799999999999999378 ) ) ;
#164 = PLANE ( 'NONE',  #30 ) ;
#165 = AXIS2_PLACEMENT_3D ( 'NONE', #96, #167, #76 ) ;
#166 = DIRECTION ( 'NONE',  ( -4.313464584375622907E-31, -1.000000000000000000, -1.219242935835426903E-16 ) ) ;
#167 = DIRECTION ( 'NONE',  ( 3.491481338843133355E-15, -1.219242935835426903E-16, 1.000000000000000000 ) ) ;
#168 = DIRECTION ( 'NONE',  ( 3.491481338843133355E-15, -1.219242935835426903E-16, 1.000000000000000000 ) ) ;
#169 =( GEOMETRIC_REPRESENTATION_CONTEXT ( 3 ) GLOBAL_UNCERTAINTY_ASSIGNED_CONTEXT ( ( #89 ) ) GLOBAL_UNIT_ASSIGNED_CONTEXT ( ( #23, #158, #228 ) ) REPRESENTATION_CONTEXT ( 'NONE', 'WORKASPACE' ) );
#170 = PLANE ( 'NONE',  #53 ) ;
#171 = EDGE_CURVE ( 'NONE', #85, #85, #160, .T. ) ;
#172 = CIRCLE ( 'NONE', #155, 0.6999999999999999556 ) ;
#173 = EDGE_LOOP ( 'NONE', ( #212 ) ) ;
#174 = EDGE_CURVE ( 'NONE', #42, #42, #116, .T. ) ;
#175 = EDGE_LOOP ( 'NONE', ( #6 ) ) ;
#176 = FACE_BOUND ( 'NONE', #105, .T. ) ;
#177 = DATE_AND_TIME ( #51, #45 ) ;
#178 = DIRECTION ( 'NONE',  ( -3.491481338843133355E-15, 1.219242935835426903E-16, -1.000000000000000000 ) ) ;
#179 = CONICAL_SURFACE ( 'NONE', #78, 2.499999999999994671, 0.2617993877991429130 ) ;
#180 = MANIFOLD_SOLID_BREP ( 'Corps-Déplacer/Copier1[1]', #58 ) ;
#181 = DIRECTION ( 'NONE',  ( -3.491481338843133355E-15, 1.224646799147353207E-16, -1.000000000000000000 ) ) ;
#182 = ADVANCED_FACE ( 'NONE', ( #57 ), #240, .F. ) ;
#183 = FACE_OUTER_BOUND ( 'NONE', #121, .T. ) ;
#184 = DIRECTION ( 'NONE',  ( 3.491481338843133355E-15, -1.219242935835426903E-16, 1.000000000000000000 ) ) ;
#185 = CARTESIAN_POINT ( 'NONE',  ( 1.326762908760390423E-13, -4.653657836759941941E-15, 38.00000000000000000 ) ) ;
#186 = SECURITY_CLASSIFICATION ( '', '', #33 ) ;
#187 = CARTESIAN_POINT ( 'NONE',  ( 9.776147748760773395E-15, 1.124819836996386500E-32, 2.799999999999999822 ) ) ;
#188 = CARTESIAN_POINT ( 'NONE',  ( 9.776147748760771817E-15, -0.7000000000000002887, 2.799999999999999378 ) ) ;
#189 = DIRECTION ( 'NONE',  ( -4.275831445896958607E-31, -1.000000000000000000, -1.224646799147353207E-16 ) ) ;
#190 = ORIENTED_EDGE ( 'NONE', *, *, #171, .T. ) ;
#191 = ADVANCED_FACE ( 'NONE', ( #41 ), #170, .F. ) ;
#192 = AXIS2_PLACEMENT_3D ( 'NONE', #18, #168, #238 ) ;
#193 = MECHANICAL_CONTEXT ( 'NONE', #16, 'mechanical' ) ;
#194 = CARTESIAN_POINT ( 'NONE',  ( 1.158347148098602978E-14, -0.7681483474218601115, 3.317638090205028867 ) ) ;
#195 = ORIENTED_EDGE ( 'NONE', *, *, #162, .F. ) ;
#196 = ORIENTED_EDGE ( 'NONE', *, *, #99, .F. ) ;
#197 = CIRCLE ( 'NONE', #109, 1.499999999999994005 ) ;
#198 = PERSON_AND_ORGANIZATION_ROLE ( 'design_supplier' ) ;
#199 = FACE_OUTER_BOUND ( 'NONE', #125, .T. ) ;
#200 = APPROVAL ( #211, 'UNSPECIFIED' ) ;
#201 = DIRECTION ( 'NONE',  ( 0.0000000000000000000, 1.000000000000000000, 0.0000000000000000000 ) ) ;
#202 = CC_DESIGN_PERSON_AND_ORGANIZATION_ASSIGNMENT ( #161, #198, ( #217 ) ) ;
#203 = CARTESIAN_POINT ( 'NONE',  ( 9.776147748760773395E-15, 1.124819836996386500E-32, 2.799999999999999822 ) ) ;
#204 = CC_DESIGN_APPROVAL ( #200, ( #242 ) ) ;
#205 = FACE_OUTER_BOUND ( 'NONE', #175, .T. ) ;
#206 = PERSON ( 'UNSPECIFIED', 'UNSPECIFIED', 'UNSPECIFIED', ('UNSPECIFIED'), ('UNSPECIFIED'), ('UNSPECIFIED') ) ;
#207 = APPROVAL_DATE_TIME ( #21, #200 ) ;
#208 = LOCAL_TIME ( 10, 16, 6.000000000000000000, #243 ) ;
#209 = DIRECTION ( 'NONE',  ( 0.0000000000000000000, 0.0000000000000000000, 1.000000000000000000 ) ) ;
#210 = PERSON_AND_ORGANIZATION ( #206, #55 ) ;
#211 = APPROVAL_STATUS ( 'not_yet_approved' ) ;
#212 = ORIENTED_EDGE ( 'NONE', *, *, #174, .F. ) ;
#213 = AXIS2_PLACEMENT_3D ( 'NONE', #203, #113, #111 ) ;
#214 = CARTESIAN_POINT ( 'NONE',  ( -3.375261069362788710E-30, -0.7000000000000000666, -9.667131918514412621E-16 ) ) ;
#215 = ORIENTED_EDGE ( 'NONE', *, *, #37, .F. ) ;
#216 = ORIENTED_EDGE ( 'NONE', *, *, #99, .T. ) ;
#217 = PRODUCT_DEFINITION_FORMATION_WITH_SPECIFIED_SOURCE ( 'ANY', '', #234, .NOT_KNOWN. ) ;
#218 = CARTESIAN_POINT ( 'NONE',  ( 1.316288464743861212E-13, -4.616918432785521081E-15, 37.69999999999999574 ) ) ;
#219 = FACE_OUTER_BOUND ( 'NONE', #31, .T. ) ;
#220 = PERSON_AND_ORGANIZATION ( #206, #55 ) ;
#221 = CC_DESIGN_PERSON_AND_ORGANIZATION_ASSIGNMENT ( #220, #12, ( #217 ) ) ;
#222 = CYLINDRICAL_SURFACE ( 'NONE', #165, 0.7000000000000000666 ) ;
#223 = FACE_OUTER_BOUND ( 'NONE', #29, .T. ) ;
#224 = CC_DESIGN_APPROVAL ( #108, ( #186 ) ) ;
#225 = DIRECTION ( 'NONE',  ( 3.491481338843133355E-15, -1.224646799147353207E-16, 1.000000000000000000 ) ) ;
#226 = APPROVAL_ROLE ( '' ) ;
#227 = VERTEX_POINT ( 'NONE', #118 ) ;
#228 =( NAMED_UNIT ( * ) SI_UNIT ( $, .STERADIAN. ) SOLID_ANGLE_UNIT ( ) );
#229 = ORIENTED_EDGE ( 'NONE', *, *, #151, .F. ) ;
#230 = COORDINATED_UNIVERSAL_TIME_OFFSET ( 1, 0, .AHEAD. ) ;
#231 = DATE_AND_TIME ( #141, #64 ) ;
#232 = SHAPE_DEFINITION_REPRESENTATION ( #75, #80 ) ;
#233 = DIRECTION ( 'NONE',  ( 4.275831445896958607E-31, 1.000000000000000000, 1.224646799147353207E-16 ) ) ;
#234 = PRODUCT ( '35250', '35250', '', ( #193 ) ) ;
#235 = DESIGN_CONTEXT ( 'detailed design', #8, 'design' ) ;
#236 = FACE_OUTER_BOUND ( 'NONE', #28, .T. ) ;
#237 = PERSON_AND_ORGANIZATION ( #206, #55 ) ;
#238 = DIRECTION ( 'NONE',  ( 0.0000000000000000000, -1.000000000000000000, 0.0000000000000000000 ) ) ;
#239 = PLANE ( 'NONE',  #213 ) ;
#240 = PLANE ( 'NONE',  #138 ) ;
#241 = CONICAL_SURFACE ( 'NONE', #13, 1.199999999999995515, 0.7853981633974461696 ) ;
#242 = PRODUCT_DEFINITION ( 'UNKNOWN', '', #217, #235 ) ;
#243 = COORDINATED_UNIVERSAL_TIME_OFFSET ( 1, 0, .AHEAD. ) ;
ENDSEC;
END-ISO-10303-21;
