ISO-10303-21;
HEADER;
FILE_DESCRIPTION (( 'STEP AP203' ),
    '1' );
FILE_NAME ('35249.step',
    '2021-11-01T09:16:06',
    ( '' ),
    ( '' ),
    'SwSTEP 2.0',
    'SolidWorks 2019',
    '' );
FILE_SCHEMA (( 'CONFIG_CONTROL_DESIGN' ));
ENDSEC;

DATA;
#1 = CARTESIAN_POINT ( 'NONE',  ( 2.107300384577428902E-14, -7.358799484320381222E-16, 6.035548181608386464 ) ) ;
#2 = DATE_AND_TIME ( #170, #45 ) ;
#3 = EDGE_CURVE ( 'NONE', #153, #153, #218, .T. ) ;
#4 = AXIS2_PLACEMENT_3D ( 'NONE', #175, #174, #116 ) ;
#5 = CARTESIAN_POINT ( 'NONE',  ( 2.107300384577428902E-14, -1.499999999999994449, 6.035548181608386464 ) ) ;
#6 = COORDINATED_UNIVERSAL_TIME_OFFSET ( 1, 0, .AHEAD. ) ;
#7 = ORIENTED_EDGE ( 'NONE', *, *, #196, .F. ) ;
#8 = CALENDAR_DATE ( 2021, 1, 11 ) ;
#9 = CARTESIAN_POINT ( 'NONE',  ( 3.410338959601581998E-14, -1.190907606762775657E-15, 9.767598989177363578 ) ) ;
#10 = ADVANCED_FACE ( 'NONE', ( #71, #107 ), #150, .T. ) ;
#11 = DIRECTION ( 'NONE',  ( 4.275831445896958607E-31, 1.000000000000000000, 1.224646799147353207E-16 ) ) ;
#12 = DIRECTION ( 'NONE',  ( 0.0000000000000000000, -1.000000000000000000, 0.0000000000000000000 ) ) ;
#13 = DIRECTION ( 'NONE',  ( 0.0000000000000000000, -1.000000000000000000, 0.0000000000000000000 ) ) ;
#14 = FACE_OUTER_BOUND ( 'NONE', #158, .T. ) ;
#15 = CARTESIAN_POINT ( 'NONE',  ( 9.077851480992145146E-15, -0.6500000000000001332, 2.599999999999999645 ) ) ;
#16 = CC_DESIGN_PERSON_AND_ORGANIZATION_ASSIGNMENT ( #217, #181, ( #164 ) ) ;
#17 = COORDINATED_UNIVERSAL_TIME_OFFSET ( 1, 0, .AHEAD. ) ;
#18 = CIRCLE ( 'NONE', #137, 0.6499999999999999112 ) ;
#19 = CIRCLE ( 'NONE', #214, 1.499999999999993783 ) ;
#20 = PERSON ( 'UNSPECIFIED', 'UNSPECIFIED', 'UNSPECIFIED', ('UNSPECIFIED'), ('UNSPECIFIED'), ('UNSPECIFIED') ) ;
#21 = CALENDAR_DATE ( 2021, 1, 11 ) ;
#22 = EDGE_CURVE ( 'NONE', #210, #210, #213, .T. ) ;
#23 = PRODUCT ( '35249', '35249', '', ( #136 ) ) ;
#24 = EDGE_LOOP ( 'NONE', ( #82 ) ) ;
#25 = EDGE_LOOP ( 'NONE', ( #42 ) ) ;
#26 = APPROVAL_PERSON_ORGANIZATION ( #228, #232, #211 ) ;
#27 = DIRECTION ( 'NONE',  ( 3.491481338843133355E-15, -1.219242935835426903E-16, 1.000000000000000000 ) ) ;
#28 = PLANE ( 'NONE',  #132 ) ;
#29 = APPROVAL_STATUS ( 'not_yet_approved' ) ;
#30 = CARTESIAN_POINT ( 'NONE',  ( 1.088517521321740310E-14, -3.801158217973932592E-16, 3.117638090205028689 ) ) ;
#31 = DIRECTION ( 'NONE',  ( 0.0000000000000000000, -1.000000000000000000, 0.0000000000000000000 ) ) ;
#32 = ADVANCED_FACE ( 'NONE', ( #14 ), #206, .F. ) ;
#33 = DIRECTION ( 'NONE',  ( 0.0000000000000000000, -1.000000000000000000, 0.0000000000000000000 ) ) ;
#34 = VERTEX_POINT ( 'NONE', #15 ) ;
#35 = APPLICATION_PROTOCOL_DEFINITION ( 'international standard', 'config_control_design', 1994, #118 ) ;
#36 = APPROVAL_DATE_TIME ( #208, #78 ) ;
#37 = PLANE ( 'NONE',  #4 ) ;
#38 = DIRECTION ( 'NONE',  ( 1.000000000000000000, 0.0000000000000000000, 0.0000000000000000000 ) ) ;
#39 = ADVANCED_FACE ( 'NONE', ( #44, #166 ), #239, .T. ) ;
#40 = ORIENTED_EDGE ( 'NONE', *, *, #22, .F. ) ;
#41 = ORIENTED_EDGE ( 'NONE', *, *, #46, .F. ) ;
#42 = ORIENTED_EDGE ( 'NONE', *, *, #3, .T. ) ;
#43 = AXIS2_PLACEMENT_3D ( 'NONE', #64, #243, #187 ) ;
#44 = FACE_OUTER_BOUND ( 'NONE', #84, .T. ) ;
#45 = LOCAL_TIME ( 10, 16, 6.000000000000000000, #6 ) ;
#46 = EDGE_CURVE ( 'NONE', #74, #74, #126, .T. ) ;
#47 = CARTESIAN_POINT ( 'NONE',  ( 9.077851480992145146E-15, -3.170031633172109355E-16, 2.599999999999999645 ) ) ;
#48 = DATE_AND_TIME ( #8, #240 ) ;
#49 = DIRECTION ( 'NONE',  ( 4.275831445896958607E-31, 1.000000000000000000, 1.224646799147353207E-16 ) ) ;
#50 = FACE_OUTER_BOUND ( 'NONE', #102, .T. ) ;
#51 = FACE_OUTER_BOUND ( 'NONE', #156, .T. ) ;
#52 = EDGE_CURVE ( 'NONE', #96, #96, #198, .T. ) ;
#53 = APPROVAL_STATUS ( 'not_yet_approved' ) ;
#54 =( NAMED_UNIT ( * ) PLANE_ANGLE_UNIT ( ) SI_UNIT ( $, .RADIAN. ) );
#55 = MANIFOLD_SOLID_BREP ( 'Corps-Déplacer/Copier1[1]', #98 ) ;
#56 = ADVANCED_FACE ( 'NONE', ( #146 ), #69, .T. ) ;
#57 = ORGANIZATION ( 'UNSPECIFIED', 'UNSPECIFIED', '' ) ;
#58 = EDGE_CURVE ( 'NONE', #171, #171, #230, .T. ) ;
#59 = ORIENTED_EDGE ( 'NONE', *, *, #52, .F. ) ;
#60 = LOCAL_TIME ( 10, 16, 6.000000000000000000, #17 ) ;
#61 = EDGE_LOOP ( 'NONE', ( #79 ) ) ;
#62 = ORIENTED_EDGE ( 'NONE', *, *, #58, .F. ) ;
#63 = SHAPE_DEFINITION_REPRESENTATION ( #176, #113 ) ;
#64 = CARTESIAN_POINT ( 'NONE',  ( 1.326762908760390423E-13, -4.653657836759941941E-15, 38.00000000000000000 ) ) ;
#65 = SECURITY_CLASSIFICATION_LEVEL ( 'unclassified' ) ;
#66 = DIRECTION ( 'NONE',  ( -4.314072117992718681E-31, -1.000000000000000000, -1.219242935835426903E-16 ) ) ;
#67 = ADVANCED_FACE ( 'NONE', ( #200, #51 ), #72, .F. ) ;
#68 = DIRECTION ( 'NONE',  ( -3.491481338843133355E-15, 1.224646799147353207E-16, -1.000000000000000000 ) ) ;
#69 = PLANE ( 'NONE',  #91 ) ;
#70 = CC_DESIGN_SECURITY_CLASSIFICATION ( #164, ( #139 ) ) ;
#71 = FACE_OUTER_BOUND ( 'NONE', #25, .T. ) ;
#72 = TOROIDAL_SURFACE ( 'NONE', #159, 2.650000000000000799, 2.000000000000000444 ) ;
#73 = DATE_AND_TIME ( #94, #60 ) ;
#74 = VERTEX_POINT ( 'NONE', #188 ) ;
#75 =( LENGTH_UNIT ( ) NAMED_UNIT ( * ) SI_UNIT ( .MILLI., .METRE. ) );
#76 = DESIGN_CONTEXT ( 'detailed design', #118, 'design' ) ;
#77 = EDGE_LOOP ( 'NONE', ( #197 ) ) ;
#78 = APPROVAL ( #134, 'UNSPECIFIED' ) ;
#79 = ORIENTED_EDGE ( 'NONE', *, *, #22, .T. ) ;
#80 = EDGE_LOOP ( 'NONE', ( #121 ) ) ;
#81 = AXIS2_PLACEMENT_3D ( 'NONE', #88, #68, #49 ) ;
#82 = ORIENTED_EDGE ( 'NONE', *, *, #92, .F. ) ;
#83 = COORDINATED_UNIVERSAL_TIME_OFFSET ( 1, 0, .AHEAD. ) ;
#84 = EDGE_LOOP ( 'NONE', ( #40 ) ) ;
#85 = DIRECTION ( 'NONE',  ( -3.491481338843133355E-15, 1.224646799147353207E-16, -1.000000000000000000 ) ) ;
#86 = DIRECTION ( 'NONE',  ( -3.491481338843133355E-15, 1.219242935835426903E-16, -1.000000000000000000 ) ) ;
#87 = ADVANCED_FACE ( 'NONE', ( #182, #50 ), #112, .T. ) ;
#88 = CARTESIAN_POINT ( 'NONE',  ( 1.326762908760390423E-13, 8.998558695971044381E-33, 38.00000000000000000 ) ) ;
#89 = CARTESIAN_POINT ( 'NONE',  ( 9.077851480992146724E-15, 1.124819836996386637E-32, 2.600000000000000089 ) ) ;
#90 = FACE_OUTER_BOUND ( 'NONE', #100, .T. ) ;
#91 = AXIS2_PLACEMENT_3D ( 'NONE', #186, #103, #147 ) ;
#92 = EDGE_CURVE ( 'NONE', #34, #34, #18, .T. ) ;
#93 = PERSON_AND_ORGANIZATION ( #20, #57 ) ;
#94 = CALENDAR_DATE ( 2021, 1, 11 ) ;
#95 = CC_DESIGN_PERSON_AND_ORGANIZATION_ASSIGNMENT ( #93, #97, ( #101 ) ) ;
#96 = VERTEX_POINT ( 'NONE', #154 ) ;
#97 = PERSON_AND_ORGANIZATION_ROLE ( 'creator' ) ;
#98 = CLOSED_SHELL ( 'NONE', ( #157, #39, #32, #87, #67, #115 ) ) ;
#99 = AXIS2_PLACEMENT_3D ( 'NONE', #225, #85, #127 ) ;
#100 = EDGE_LOOP ( 'NONE', ( #7 ) ) ;
#101 = PRODUCT_DEFINITION ( 'UNKNOWN', '', #139, #76 ) ;
#102 = EDGE_LOOP ( 'NONE', ( #177 ) ) ;
#103 = DIRECTION ( 'NONE',  ( 3.491481338843133355E-15, -1.224646799147353207E-16, 1.000000000000000000 ) ) ;
#104 = PERSON_AND_ORGANIZATION ( #20, #57 ) ;
#105 = AXIS2_PLACEMENT_3D ( 'NONE', #180, #109, #145 ) ;
#106 = CYLINDRICAL_SURFACE ( 'NONE', #108, 1.499999999999993783 ) ;
#107 = FACE_OUTER_BOUND ( 'NONE', #24, .T. ) ;
#108 = AXIS2_PLACEMENT_3D ( 'NONE', #183, #168, #11 ) ;
#109 = DIRECTION ( 'NONE',  ( 3.491481338843133355E-15, -1.219242935835426903E-16, 1.000000000000000000 ) ) ;
#110 = FACE_OUTER_BOUND ( 'NONE', #61, .T. ) ;
#111 = CC_DESIGN_DATE_AND_TIME_ASSIGNMENT ( #161, #237, ( #164 ) ) ;
#112 = CONICAL_SURFACE ( 'NONE', #204, 2.499999999999994671, 0.2617993877991430240 ) ;
#113 = ADVANCED_BREP_SHAPE_REPRESENTATION ( '35249', ( #55, #141, #148 ), #221 ) ;
#114 = COORDINATED_UNIVERSAL_TIME_OFFSET ( 1, 0, .AHEAD. ) ;
#115 = ADVANCED_FACE ( 'NONE', ( #201 ), #28, .F. ) ;
#116 = DIRECTION ( 'NONE',  ( -4.275831445896958607E-31, -1.000000000000000000, -1.224646799147353207E-16 ) ) ;
#117 = PERSON_AND_ORGANIZATION ( #20, #57 ) ;
#118 = APPLICATION_CONTEXT ( 'configuration controlled 3d designs of mechanical parts and assemblies' ) ;
#119 = UNCERTAINTY_MEASURE_WITH_UNIT (LENGTH_MEASURE( 1.000000000000000082E-05 ), #75, 'distance_accuracy_value', 'NONE');
#120 = EDGE_LOOP ( 'NONE', ( #178 ) ) ;
#121 = ORIENTED_EDGE ( 'NONE', *, *, #58, .T. ) ;
#122 = CARTESIAN_POINT ( 'NONE',  ( 9.077851480992145146E-15, -4.336808689942017736E-16, 2.599999999999999645 ) ) ;
#123 = DIRECTION ( 'NONE',  ( 3.491481338843133355E-15, -1.219242935835426903E-16, 1.000000000000000000 ) ) ;
#124 = APPROVAL_ROLE ( '' ) ;
#125 = CARTESIAN_POINT ( 'NONE',  ( 0.0000000000000000000, 0.0000000000000000000, 0.0000000000000000000 ) ) ;
#126 = CIRCLE ( 'NONE', #163, 0.6499999999999999112 ) ;
#127 = DIRECTION ( 'NONE',  ( 0.0000000000000000000, 1.000000000000000000, 0.0000000000000000000 ) ) ;
#128 = CARTESIAN_POINT ( 'NONE',  ( 1.326762908760390423E-13, -4.653657836759941941E-15, 38.00000000000000000 ) ) ;
#129 = PRODUCT_RELATED_PRODUCT_CATEGORY ( 'detail', '', ( #23 ) ) ;
#130 = CARTESIAN_POINT ( 'NONE',  ( -3.332691429782931157E-30, -0.6500000000000000222, -9.545207624930868551E-16 ) ) ;
#131 = AXIS2_PLACEMENT_3D ( 'NONE', #128, #162, #226 ) ;
#132 = AXIS2_PLACEMENT_3D ( 'NONE', #89, #167, #207 ) ;
#133 = CC_DESIGN_PERSON_AND_ORGANIZATION_ASSIGNMENT ( #222, #224, ( #139 ) ) ;
#134 = APPROVAL_STATUS ( 'not_yet_approved' ) ;
#135 = PERSON_AND_ORGANIZATION ( #20, #57 ) ;
#136 = MECHANICAL_CONTEXT ( 'NONE', #220, 'mechanical' ) ;
#137 = AXIS2_PLACEMENT_3D ( 'NONE', #47, #123, #13 ) ;
#138 = EDGE_LOOP ( 'NONE', ( #219 ) ) ;
#139 = PRODUCT_DEFINITION_FORMATION_WITH_SPECIFIED_SOURCE ( 'ANY', '', #23, .NOT_KNOWN. ) ;
#140 = EDGE_LOOP ( 'NONE', ( #236 ) ) ;
#141 = MANIFOLD_SOLID_BREP ( 'Corps-Déplacer/Copier1[2]', #195 ) ;
#142 = EDGE_LOOP ( 'NONE', ( #41 ) ) ;
#143 = APPROVAL_DATE_TIME ( #73, #232 ) ;
#144 = PERSON_AND_ORGANIZATION ( #20, #57 ) ;
#145 = DIRECTION ( 'NONE',  ( -4.256963957985703634E-31, -1.000000000000000000, -1.219242935835425670E-16 ) ) ;
#146 = FACE_OUTER_BOUND ( 'NONE', #120, .T. ) ;
#147 = DIRECTION ( 'NONE',  ( -4.275831445896958607E-31, -1.000000000000000000, -1.224646799147353207E-16 ) ) ;
#148 = AXIS2_PLACEMENT_3D ( 'NONE', #151, #229, #38 ) ;
#149 = CC_DESIGN_PERSON_AND_ORGANIZATION_ASSIGNMENT ( #135, #212, ( #23 ) ) ;
#150 = CYLINDRICAL_SURFACE ( 'NONE', #209, 0.6500000000000000222 ) ;
#151 = CARTESIAN_POINT ( 'NONE',  ( 0.0000000000000000000, 0.0000000000000000000, 0.0000000000000000000 ) ) ;
#152 = DATE_TIME_ROLE ( 'creation_date' ) ;
#153 = VERTEX_POINT ( 'NONE', #130 ) ;
#154 = CARTESIAN_POINT ( 'NONE',  ( 1.326762908760390423E-13, 1.199999999999991074, 38.00000000000000000 ) ) ;
#155 = CC_DESIGN_DATE_AND_TIME_ASSIGNMENT ( #2, #152, ( #101 ) ) ;
#156 = EDGE_LOOP ( 'NONE', ( #62 ) ) ;
#157 = ADVANCED_FACE ( 'NONE', ( #110, #90 ), #106, .T. ) ;
#158 = EDGE_LOOP ( 'NONE', ( #59 ) ) ;
#159 = AXIS2_PLACEMENT_3D ( 'NONE', #122, #27, #66 ) ;
#160 = APPROVAL_PERSON_ORGANIZATION ( #117, #78, #193 ) ;
#161 = DATE_AND_TIME ( #194, #173 ) ;
#162 = DIRECTION ( 'NONE',  ( -3.491481338843133355E-15, 1.224646799147353207E-16, -1.000000000000000000 ) ) ;
#163 = AXIS2_PLACEMENT_3D ( 'NONE', #203, #238, #12 ) ;
#164 = SECURITY_CLASSIFICATION ( '', '', #65 ) ;
#165 = DIRECTION ( 'NONE',  ( 0.0000000000000000000, -1.000000000000000000, 0.0000000000000000000 ) ) ;
#166 = FACE_BOUND ( 'NONE', #140, .T. ) ;
#167 = DIRECTION ( 'NONE',  ( 3.491481338843133355E-15, -1.224646799147353207E-16, 1.000000000000000000 ) ) ;
#168 = DIRECTION ( 'NONE',  ( -3.491481338843133355E-15, 1.224646799147353207E-16, -1.000000000000000000 ) ) ;
#169 = VERTEX_POINT ( 'NONE', #5 ) ;
#170 = CALENDAR_DATE ( 2021, 1, 11 ) ;
#171 = VERTEX_POINT ( 'NONE', #191 ) ;
#172 = AXIS2_PLACEMENT_3D ( 'NONE', #30, #242, #33 ) ;
#173 = LOCAL_TIME ( 10, 16, 6.000000000000000000, #83 ) ;
#174 = DIRECTION ( 'NONE',  ( 3.491481338843133355E-15, -1.224646799147353207E-16, 1.000000000000000000 ) ) ;
#175 = CARTESIAN_POINT ( 'NONE',  ( -1.068955699180124799E-30, 3.749391872347842254E-32, -3.061610804811898009E-16 ) ) ;
#176 = PRODUCT_DEFINITION_SHAPE ( 'NONE', 'NONE',  #101 ) ;
#177 = ORIENTED_EDGE ( 'NONE', *, *, #196, .T. ) ;
#178 = ORIENTED_EDGE ( 'NONE', *, *, #92, .T. ) ;
#179 = CC_DESIGN_APPROVAL ( #192, ( #164 ) ) ;
#180 = CARTESIAN_POINT ( 'NONE',  ( -3.055988772513860565E-30, 1.067166729899943133E-31, -8.752699716637840965E-16 ) ) ;
#181 = PERSON_AND_ORGANIZATION_ROLE ( 'classification_officer' ) ;
#182 = FACE_BOUND ( 'NONE', #80, .T. ) ;
#183 = CARTESIAN_POINT ( 'NONE',  ( 0.0000000000000000000, 0.0000000000000000000, 0.0000000000000000000 ) ) ;
#184 = CC_DESIGN_APPROVAL ( #78, ( #101 ) ) ;
#185 = DIRECTION ( 'NONE',  ( -4.256963957985708013E-31, -1.000000000000000000, -1.219242935835426903E-16 ) ) ;
#186 = CARTESIAN_POINT ( 'NONE',  ( 9.077851480992146724E-15, 1.124819836996386637E-32, 2.600000000000000089 ) ) ;
#187 = DIRECTION ( 'NONE',  ( 0.0000000000000000000, 1.000000000000000000, 0.0000000000000000000 ) ) ;
#188 = CARTESIAN_POINT ( 'NONE',  ( 9.077851480992145146E-15, -0.6500000000000001332, 2.599999999999999645 ) ) ;
#189 = LOCAL_TIME ( 10, 16, 6.000000000000000000, #114 ) ;
#190 = CARTESIAN_POINT ( 'NONE',  ( 1.316288464743861212E-13, 1.499999999999991340, 37.69999999999999574 ) ) ;
#191 = CARTESIAN_POINT ( 'NONE',  ( 1.088517521321740310E-14, -0.7181483474218608443, 3.117638090205028689 ) ) ;
#192 = APPROVAL ( #29, 'UNSPECIFIED' ) ;
#193 = APPROVAL_ROLE ( '' ) ;
#194 = CALENDAR_DATE ( 2021, 1, 11 ) ;
#195 = CLOSED_SHELL ( 'NONE', ( #56, #10, #234 ) ) ;
#196 = EDGE_CURVE ( 'NONE', #169, #169, #19, .T. ) ;
#197 = ORIENTED_EDGE ( 'NONE', *, *, #46, .T. ) ;
#198 = CIRCLE ( 'NONE', #43, 1.199999999999995515 ) ;
#199 = APPROVAL_PERSON_ORGANIZATION ( #144, #192, #124 ) ;
#200 = FACE_OUTER_BOUND ( 'NONE', #77, .T. ) ;
#201 = FACE_OUTER_BOUND ( 'NONE', #142, .T. ) ;
#202 = APPROVAL_DATE_TIME ( #48, #192 ) ;
#203 = CARTESIAN_POINT ( 'NONE',  ( 9.077851480992145146E-15, -3.170031633172109355E-16, 2.599999999999999645 ) ) ;
#204 = AXIS2_PLACEMENT_3D ( 'NONE', #9, #223, #31 ) ;
#205 = CC_DESIGN_APPROVAL ( #232, ( #139 ) ) ;
#206 = PLANE ( 'NONE',  #81 ) ;
#207 = DIRECTION ( 'NONE',  ( -4.275831445896958607E-31, -1.000000000000000000, -1.224646799147353207E-16 ) ) ;
#208 = DATE_AND_TIME ( #21, #189 ) ;
#209 = AXIS2_PLACEMENT_3D ( 'NONE', #125, #227, #185 ) ;
#210 = VERTEX_POINT ( 'NONE', #190 ) ;
#211 = APPROVAL_ROLE ( '' ) ;
#212 = PERSON_AND_ORGANIZATION_ROLE ( 'design_owner' ) ;
#213 = CIRCLE ( 'NONE', #99, 1.499999999999996003 ) ;
#214 = AXIS2_PLACEMENT_3D ( 'NONE', #1, #86, #165 ) ;
#215 = PERSON_AND_ORGANIZATION_ROLE ( 'design_supplier' ) ;
#216 = CC_DESIGN_PERSON_AND_ORGANIZATION_ASSIGNMENT ( #104, #215, ( #139 ) ) ;
#217 = PERSON_AND_ORGANIZATION ( #20, #57 ) ;
#218 = CIRCLE ( 'NONE', #105, 0.6500000000000000222 ) ;
#219 = ORIENTED_EDGE ( 'NONE', *, *, #3, .F. ) ;
#220 = APPLICATION_CONTEXT ( 'configuration controlled 3d designs of mechanical parts and assemblies' ) ;
#221 =( GEOMETRIC_REPRESENTATION_CONTEXT ( 3 ) GLOBAL_UNCERTAINTY_ASSIGNED_CONTEXT ( ( #119 ) ) GLOBAL_UNIT_ASSIGNED_CONTEXT ( ( #75, #54, #233 ) ) REPRESENTATION_CONTEXT ( 'NONE', 'WORKASPACE' ) );
#222 = PERSON_AND_ORGANIZATION ( #20, #57 ) ;
#223 = DIRECTION ( 'NONE',  ( 3.491481338843133355E-15, -1.219242935835426903E-16, 1.000000000000000000 ) ) ;
#224 = PERSON_AND_ORGANIZATION_ROLE ( 'creator' ) ;
#225 = CARTESIAN_POINT ( 'NONE',  ( 1.316288464743861212E-13, -4.616918432785521081E-15, 37.69999999999999574 ) ) ;
#226 = DIRECTION ( 'NONE',  ( 0.0000000000000000000, 1.000000000000000000, 0.0000000000000000000 ) ) ;
#227 = DIRECTION ( 'NONE',  ( 3.491481338843133355E-15, -1.219242935835426903E-16, 1.000000000000000000 ) ) ;
#228 = PERSON_AND_ORGANIZATION ( #20, #57 ) ;
#229 = DIRECTION ( 'NONE',  ( 0.0000000000000000000, 0.0000000000000000000, 1.000000000000000000 ) ) ;
#230 = CIRCLE ( 'NONE', #172, 0.7181483474218604002 ) ;
#231 = APPLICATION_PROTOCOL_DEFINITION ( 'international standard', 'config_control_design', 1994, #220 ) ;
#232 = APPROVAL ( #53, 'UNSPECIFIED' ) ;
#233 =( NAMED_UNIT ( * ) SI_UNIT ( $, .STERADIAN. ) SOLID_ANGLE_UNIT ( ) );
#234 = ADVANCED_FACE ( 'NONE', ( #241 ), #37, .F. ) ;
#235 = COORDINATED_UNIVERSAL_TIME_OFFSET ( 1, 0, .AHEAD. ) ;
#236 = ORIENTED_EDGE ( 'NONE', *, *, #52, .T. ) ;
#237 = DATE_TIME_ROLE ( 'classification_date' ) ;
#238 = DIRECTION ( 'NONE',  ( 3.491481338843133355E-15, -1.219242935835426903E-16, 1.000000000000000000 ) ) ;
#239 = CONICAL_SURFACE ( 'NONE', #131, 1.199999999999995515, 0.7853981633974461696 ) ;
#240 = LOCAL_TIME ( 10, 16, 6.000000000000000000, #235 ) ;
#241 = FACE_OUTER_BOUND ( 'NONE', #138, .T. ) ;
#242 = DIRECTION ( 'NONE',  ( 3.491481338843133355E-15, -1.219242935835426903E-16, 1.000000000000000000 ) ) ;
#243 = DIRECTION ( 'NONE',  ( -3.491481338843133355E-15, 1.224646799147353207E-16, -1.000000000000000000 ) ) ;
ENDSEC;
END-ISO-10303-21;
