ISO-10303-21;
HEADER;
FILE_DESCRIPTION (( 'STEP AP203' ),
    '1' );
FILE_NAME ('35248.step',
    '2021-11-01T09:16:05',
    ( '' ),
    ( '' ),
    'SwSTEP 2.0',
    'SolidWorks 2019',
    '' );
FILE_SCHEMA (( 'CONFIG_CONTROL_DESIGN' ));
ENDSEC;

DATA;
#1 = DIRECTION ( 'NONE',  ( 3.491481338843133355E-15, -1.224646799147353207E-16, 1.000000000000000000 ) ) ;
#2 = DIRECTION ( 'NONE',  ( -3.491481338843133355E-15, 1.224646799147353207E-16, -1.000000000000000000 ) ) ;
#3 = CARTESIAN_POINT ( 'NONE',  ( 8.379555213223516897E-15, -2.926183046005023679E-16, 2.399999999999999467 ) ) ;
#4 = DIRECTION ( 'NONE',  ( 3.491481338843133355E-15, -1.224646799147353207E-16, 1.000000000000000000 ) ) ;
#5 = ORGANIZATION ( 'UNSPECIFIED', 'UNSPECIFIED', '' ) ;
#6 = CALENDAR_DATE ( 2021, 1, 11 ) ;
#7 = PRODUCT_DEFINITION ( 'UNKNOWN', '', #168, #208 ) ;
#8 = VERTEX_POINT ( 'NONE', #177 ) ;
#9 = ADVANCED_FACE ( 'NONE', ( #178 ), #12, .T. ) ;
#10 = VERTEX_POINT ( 'NONE', #211 ) ;
#11 = EDGE_LOOP ( 'NONE', ( #200 ) ) ;
#12 = PLANE ( 'NONE',  #85 ) ;
#13 = ADVANCED_FACE ( 'NONE', ( #225, #58 ), #138, .F. ) ;
#14 = COORDINATED_UNIVERSAL_TIME_OFFSET ( 1, 0, .AHEAD. ) ;
#15 = EDGE_LOOP ( 'NONE', ( #161 ) ) ;
#16 = ORIENTED_EDGE ( 'NONE', *, *, #82, .F. ) ;
#17 = AXIS2_PLACEMENT_3D ( 'NONE', #3, #99, #80 ) ;
#18 = FACE_OUTER_BOUND ( 'NONE', #243, .T. ) ;
#19 = DIRECTION ( 'NONE',  ( -4.256963957985708889E-31, -1.000000000000000000, -1.219242935835426903E-16 ) ) ;
#20 = DIRECTION ( 'NONE',  ( 3.491481338843133355E-15, -1.219242935835426903E-16, 1.000000000000000000 ) ) ;
#21 = CC_DESIGN_PERSON_AND_ORGANIZATION_ASSIGNMENT ( #62, #227, ( #67 ) ) ;
#22 = FACE_OUTER_BOUND ( 'NONE', #31, .T. ) ;
#23 = CARTESIAN_POINT ( 'NONE',  ( -1.068955699180124799E-30, 3.749391872347842254E-32, -3.061610804811898009E-16 ) ) ;
#24 = DATE_TIME_ROLE ( 'creation_date' ) ;
#25 = PERSON_AND_ORGANIZATION ( #234, #5 ) ;
#26 = CARTESIAN_POINT ( 'NONE',  ( 2.102622686551774505E-14, -7.342464726318667715E-16, 6.022150721986837318 ) ) ;
#27 = AXIS2_PLACEMENT_3D ( 'NONE', #171, #220, #112 ) ;
#28 = MECHANICAL_CONTEXT ( 'NONE', #214, 'mechanical' ) ;
#29 = EDGE_CURVE ( 'NONE', #118, #118, #164, .T. ) ;
#30 = SECURITY_CLASSIFICATION_LEVEL ( 'unclassified' ) ;
#31 = EDGE_LOOP ( 'NONE', ( #163 ) ) ;
#32 = PERSON_AND_ORGANIZATION ( #234, #5 ) ;
#33 = CC_DESIGN_SECURITY_CLASSIFICATION ( #187, ( #168 ) ) ;
#34 = APPROVAL_DATE_TIME ( #124, #134 ) ;
#35 = APPROVAL_STATUS ( 'not_yet_approved' ) ;
#36 = EDGE_CURVE ( 'NONE', #8, #8, #78, .T. ) ;
#37 = CIRCLE ( 'NONE', #210, 1.499999999999996003 ) ;
#38 = LOCAL_TIME ( 10, 16, 5.000000000000000000, #231 ) ;
#39 = FACE_OUTER_BOUND ( 'NONE', #71, .T. ) ;
#40 = ADVANCED_FACE ( 'NONE', ( #42, #207 ), #97, .T. ) ;
#41 = DIRECTION ( 'NONE',  ( 4.275831445896958607E-31, 1.000000000000000000, 1.224646799147353207E-16 ) ) ;
#42 = FACE_OUTER_BOUND ( 'NONE', #89, .T. ) ;
#43 = DIRECTION ( 'NONE',  ( 0.0000000000000000000, -1.000000000000000000, 0.0000000000000000000 ) ) ;
#44 = FACE_OUTER_BOUND ( 'NONE', #53, .T. ) ;
#45 = APPLICATION_PROTOCOL_DEFINITION ( 'international standard', 'config_control_design', 1994, #104 ) ;
#46 = AXIS2_PLACEMENT_3D ( 'NONE', #130, #20, #19 ) ;
#47 = CC_DESIGN_APPROVAL ( #157, ( #7 ) ) ;
#48 = CARTESIAN_POINT ( 'NONE',  ( 2.102622686551774505E-14, -1.499999999999994449, 6.022150721986837318 ) ) ;
#49 = APPROVAL_STATUS ( 'not_yet_approved' ) ;
#50 = ORIENTED_EDGE ( 'NONE', *, *, #36, .F. ) ;
#51 = PERSON_AND_ORGANIZATION_ROLE ( 'creator' ) ;
#52 = DATE_TIME_ROLE ( 'classification_date' ) ;
#53 = EDGE_LOOP ( 'NONE', ( #92 ) ) ;
#54 = FACE_OUTER_BOUND ( 'NONE', #237, .T. ) ;
#55 = AXIS2_PLACEMENT_3D ( 'NONE', #26, #61, #106 ) ;
#56 = CARTESIAN_POINT ( 'NONE',  ( -3.034703952723932139E-30, 1.059733963217020235E-31, -8.691737569846070902E-16 ) ) ;
#57 = CC_DESIGN_PERSON_AND_ORGANIZATION_ASSIGNMENT ( #32, #143, ( #168 ) ) ;
#58 = FACE_OUTER_BOUND ( 'NONE', #15, .T. ) ;
#59 = CARTESIAN_POINT ( 'NONE',  ( 1.326762908760390423E-13, 8.998558695971044381E-33, 38.00000000000000000 ) ) ;
#60 = FACE_BOUND ( 'NONE', #123, .T. ) ;
#61 = DIRECTION ( 'NONE',  ( -3.491481338843133355E-15, 1.219242935835426903E-16, -1.000000000000000000 ) ) ;
#62 = PERSON_AND_ORGANIZATION ( #234, #5 ) ;
#63 = CONICAL_SURFACE ( 'NONE', #126, 2.499999999999994671, 0.2617993877991429685 ) ;
#64 = DATE_AND_TIME ( #81, #38 ) ;
#65 = DIRECTION ( 'NONE',  ( 1.000000000000000000, 0.0000000000000000000, 0.0000000000000000000 ) ) ;
#66 = ORIENTED_EDGE ( 'NONE', *, *, #201, .F. ) ;
#67 = PRODUCT ( '35248', '35248', '', ( #28 ) ) ;
#68 = CC_DESIGN_PERSON_AND_ORGANIZATION_ASSIGNMENT ( #180, #236, ( #187 ) ) ;
#69 = PERSON_AND_ORGANIZATION ( #234, #5 ) ;
#70 = AXIS2_PLACEMENT_3D ( 'NONE', #152, #72, #154 ) ;
#71 = EDGE_LOOP ( 'NONE', ( #145 ) ) ;
#72 = DIRECTION ( 'NONE',  ( -3.491481338843133355E-15, 1.224646799147353207E-16, -1.000000000000000000 ) ) ;
#73 = CARTESIAN_POINT ( 'NONE',  ( 0.0000000000000000000, 0.0000000000000000000, 0.0000000000000000000 ) ) ;
#74 = APPROVAL_PERSON_ORGANIZATION ( #69, #134, #240 ) ;
#75 = DIRECTION ( 'NONE',  ( -4.275831445896958607E-31, -1.000000000000000000, -1.224646799147353207E-16 ) ) ;
#76 = FACE_OUTER_BOUND ( 'NONE', #110, .T. ) ;
#77 = DIRECTION ( 'NONE',  ( 3.491481338843133355E-15, -1.219242935835426903E-16, 1.000000000000000000 ) ) ;
#78 = CIRCLE ( 'NONE', #142, 0.5999999999999998668 ) ;
#79 = LOCAL_TIME ( 10, 16, 5.000000000000000000, #174 ) ;
#80 = DIRECTION ( 'NONE',  ( 0.0000000000000000000, -1.000000000000000000, 0.0000000000000000000 ) ) ;
#81 = CALENDAR_DATE ( 2021, 1, 11 ) ;
#82 = EDGE_CURVE ( 'NONE', #105, #105, #196, .T. ) ;
#83 = AXIS2_PLACEMENT_3D ( 'NONE', #96, #206, #222 ) ;
#84 = VERTEX_POINT ( 'NONE', #103 ) ;
#85 = AXIS2_PLACEMENT_3D ( 'NONE', #186, #1, #209 ) ;
#86 = CC_DESIGN_APPROVAL ( #134, ( #187 ) ) ;
#87 = ORIENTED_EDGE ( 'NONE', *, *, #29, .T. ) ;
#88 = PRODUCT_DEFINITION_SHAPE ( 'NONE', 'NONE',  #7 ) ;
#89 = EDGE_LOOP ( 'NONE', ( #66 ) ) ;
#90 = EDGE_LOOP ( 'NONE', ( #181 ) ) ;
#91 = AXIS2_PLACEMENT_3D ( 'NONE', #183, #221, #167 ) ;
#92 = ORIENTED_EDGE ( 'NONE', *, *, #239, .T. ) ;
#93 = LOCAL_TIME ( 10, 16, 5.000000000000000000, #144 ) ;
#94 = PLANE ( 'NONE',  #83 ) ;
#95 = CARTESIAN_POINT ( 'NONE',  ( 3.405661261575926970E-14, -1.189274130962604307E-15, 9.754201529555814432 ) ) ;
#96 = CARTESIAN_POINT ( 'NONE',  ( 8.379555213223518475E-15, 1.124819836996386637E-32, 2.399999999999999911 ) ) ;
#97 = CONICAL_SURFACE ( 'NONE', #70, 1.199999999999995515, 0.7853981633974461696 ) ;
#98 = CARTESIAN_POINT ( 'NONE',  ( 1.018687894544877643E-14, -3.557309630806847409E-16, 2.917638090205028512 ) ) ;
#99 = DIRECTION ( 'NONE',  ( 3.491481338843133355E-15, -1.219242935835426903E-16, 1.000000000000000000 ) ) ;
#100 =( NAMED_UNIT ( * ) PLANE_ANGLE_UNIT ( ) SI_UNIT ( $, .RADIAN. ) );
#101 = LOCAL_TIME ( 10, 16, 5.000000000000000000, #14 ) ;
#102 = APPROVAL_ROLE ( '' ) ;
#103 = CARTESIAN_POINT ( 'NONE',  ( 1.316288464743861212E-13, 1.499999999999991340, 37.69999999999999574 ) ) ;
#104 = APPLICATION_CONTEXT ( 'configuration controlled 3d designs of mechanical parts and assemblies' ) ;
#105 = VERTEX_POINT ( 'NONE', #137 ) ;
#106 = DIRECTION ( 'NONE',  ( 0.0000000000000000000, -1.000000000000000000, 0.0000000000000000000 ) ) ;
#107 = PERSON_AND_ORGANIZATION ( #234, #5 ) ;
#108 = ORIENTED_EDGE ( 'NONE', *, *, #228, .T. ) ;
#109 = SHAPE_DEFINITION_REPRESENTATION ( #88, #189 ) ;
#110 = EDGE_LOOP ( 'NONE', ( #202 ) ) ;
#111 = APPROVAL_DATE_TIME ( #133, #241 ) ;
#112 = DIRECTION ( 'NONE',  ( -4.314692858862359921E-31, -1.000000000000000000, -1.219242935835426903E-16 ) ) ;
#113 = DIRECTION ( 'NONE',  ( 0.0000000000000000000, -1.000000000000000000, 0.0000000000000000000 ) ) ;
#114 = DIRECTION ( 'NONE',  ( 3.491481338843133355E-15, -1.219242935835426903E-16, 1.000000000000000000 ) ) ;
#115 = CARTESIAN_POINT ( 'NONE',  ( 1.316288464743861212E-13, -4.616918432785521081E-15, 37.69999999999999574 ) ) ;
#116 = PERSON_AND_ORGANIZATION ( #234, #5 ) ;
#117 =( GEOMETRIC_REPRESENTATION_CONTEXT ( 3 ) GLOBAL_UNCERTAINTY_ASSIGNED_CONTEXT ( ( #226 ) ) GLOBAL_UNIT_ASSIGNED_CONTEXT ( ( #156, #100, #232 ) ) REPRESENTATION_CONTEXT ( 'NONE', 'WORKASPACE' ) );
#118 = VERTEX_POINT ( 'NONE', #215 ) ;
#119 = PERSON_AND_ORGANIZATION_ROLE ( 'creator' ) ;
#120 = ADVANCED_FACE ( 'NONE', ( #22, #39 ), #129, .T. ) ;
#121 = CIRCLE ( 'NONE', #17, 0.5999999999999997558 ) ;
#122 = AXIS2_PLACEMENT_3D ( 'NONE', #73, #205, #41 ) ;
#123 = EDGE_LOOP ( 'NONE', ( #87 ) ) ;
#124 = DATE_AND_TIME ( #197, #93 ) ;
#125 = EDGE_LOOP ( 'NONE', ( #108 ) ) ;
#126 = AXIS2_PLACEMENT_3D ( 'NONE', #95, #132, #43 ) ;
#127 = CC_DESIGN_DATE_AND_TIME_ASSIGNMENT ( #140, #52, ( #187 ) ) ;
#128 = DIRECTION ( 'NONE',  ( 0.0000000000000000000, 1.000000000000000000, 0.0000000000000000000 ) ) ;
#129 = CYLINDRICAL_SURFACE ( 'NONE', #46, 0.5999999999999998668 ) ;
#130 = CARTESIAN_POINT ( 'NONE',  ( 0.0000000000000000000, 0.0000000000000000000, 0.0000000000000000000 ) ) ;
#131 = DIRECTION ( 'NONE',  ( -3.491481338843133355E-15, 1.224646799147353207E-16, -1.000000000000000000 ) ) ;
#132 = DIRECTION ( 'NONE',  ( 3.491481338843133355E-15, -1.219242935835426903E-16, 1.000000000000000000 ) ) ;
#133 = DATE_AND_TIME ( #6, #79 ) ;
#134 = APPROVAL ( #35, 'UNSPECIFIED' ) ;
#135 = CALENDAR_DATE ( 2021, 1, 11 ) ;
#136 = CC_DESIGN_PERSON_AND_ORGANIZATION_ASSIGNMENT ( #107, #51, ( #168 ) ) ;
#137 = CARTESIAN_POINT ( 'NONE',  ( 1.326762908760390423E-13, 1.199999999999991074, 38.00000000000000000 ) ) ;
#138 = TOROIDAL_SURFACE ( 'NONE', #27, 2.600000000000000533, 2.000000000000000000 ) ;
#139 = CC_DESIGN_DATE_AND_TIME_ASSIGNMENT ( #193, #24, ( #7 ) ) ;
#140 = DATE_AND_TIME ( #199, #101 ) ;
#141 = EDGE_LOOP ( 'NONE', ( #242 ) ) ;
#142 = AXIS2_PLACEMENT_3D ( 'NONE', #56, #77, #150 ) ;
#143 = PERSON_AND_ORGANIZATION_ROLE ( 'design_supplier' ) ;
#144 = COORDINATED_UNIVERSAL_TIME_OFFSET ( 1, 0, .AHEAD. ) ;
#145 = ORIENTED_EDGE ( 'NONE', *, *, #228, .F. ) ;
#146 = ADVANCED_FACE ( 'NONE', ( #60, #44 ), #63, .T. ) ;
#147 = DIRECTION ( 'NONE',  ( 4.275831445896958607E-31, 1.000000000000000000, 1.224646799147353207E-16 ) ) ;
#148 = CLOSED_SHELL ( 'NONE', ( #9, #120, #191 ) ) ;
#149 = EDGE_CURVE ( 'NONE', #194, #194, #198, .T. ) ;
#150 = DIRECTION ( 'NONE',  ( -4.256963957985706261E-31, -1.000000000000000000, -1.219242935835426903E-16 ) ) ;
#151 = MANIFOLD_SOLID_BREP ( 'Corps-Déplacer/Copier1[1]', #176 ) ;
#152 = CARTESIAN_POINT ( 'NONE',  ( 1.326762908760390423E-13, -4.653657836759941941E-15, 38.00000000000000000 ) ) ;
#153 = CIRCLE ( 'NONE', #55, 1.499999999999993783 ) ;
#154 = DIRECTION ( 'NONE',  ( 0.0000000000000000000, 1.000000000000000000, 0.0000000000000000000 ) ) ;
#155 = CC_DESIGN_APPROVAL ( #241, ( #168 ) ) ;
#156 =( LENGTH_UNIT ( ) NAMED_UNIT ( * ) SI_UNIT ( .MILLI., .METRE. ) );
#157 = APPROVAL ( #49, 'UNSPECIFIED' ) ;
#158 = APPROVAL_DATE_TIME ( #64, #157 ) ;
#159 = APPROVAL_ROLE ( '' ) ;
#160 = CC_DESIGN_PERSON_AND_ORGANIZATION_ASSIGNMENT ( #235, #119, ( #7 ) ) ;
#161 = ORIENTED_EDGE ( 'NONE', *, *, #29, .F. ) ;
#162 = AXIS2_PLACEMENT_3D ( 'NONE', #23, #4, #75 ) ;
#163 = ORIENTED_EDGE ( 'NONE', *, *, #36, .T. ) ;
#164 = CIRCLE ( 'NONE', #223, 0.6681483474218601337 ) ;
#165 = LOCAL_TIME ( 10, 16, 5.000000000000000000, #195 ) ;
#166 = PLANE ( 'NONE',  #179 ) ;
#167 = DIRECTION ( 'NONE',  ( 0.0000000000000000000, -1.000000000000000000, 0.0000000000000000000 ) ) ;
#168 = PRODUCT_DEFINITION_FORMATION_WITH_SPECIFIED_SOURCE ( 'ANY', '', #67, .NOT_KNOWN. ) ;
#169 = FACE_OUTER_BOUND ( 'NONE', #90, .T. ) ;
#170 = DIRECTION ( 'NONE',  ( -3.491481338843133355E-15, 1.224646799147353207E-16, -1.000000000000000000 ) ) ;
#171 = CARTESIAN_POINT ( 'NONE',  ( 8.379555213223516897E-15, -4.336808689942017736E-16, 2.399999999999999467 ) ) ;
#172 = DIRECTION ( 'NONE',  ( 0.0000000000000000000, 0.0000000000000000000, 1.000000000000000000 ) ) ;
#173 = ADVANCED_FACE ( 'NONE', ( #18 ), #94, .F. ) ;
#174 = COORDINATED_UNIVERSAL_TIME_OFFSET ( 1, 0, .AHEAD. ) ;
#175 = CARTESIAN_POINT ( 'NONE',  ( 8.379555213223516897E-15, -0.6000000000000000888, 2.399999999999999467 ) ) ;
#176 = CLOSED_SHELL ( 'NONE', ( #216, #40, #185, #146, #13, #173 ) ) ;
#177 = CARTESIAN_POINT ( 'NONE',  ( -3.290121790203074304E-30, -0.5999999999999998668, -9.423283331347326452E-16 ) ) ;
#178 = FACE_OUTER_BOUND ( 'NONE', #125, .T. ) ;
#179 = AXIS2_PLACEMENT_3D ( 'NONE', #59, #170, #147 ) ;
#180 = PERSON_AND_ORGANIZATION ( #234, #5 ) ;
#181 = ORIENTED_EDGE ( 'NONE', *, *, #239, .F. ) ;
#182 = AXIS2_PLACEMENT_3D ( 'NONE', #192, #172, #65 ) ;
#183 = CARTESIAN_POINT ( 'NONE',  ( 8.379555213223516897E-15, -2.926183046005023679E-16, 2.399999999999999467 ) ) ;
#184 = CARTESIAN_POINT ( 'NONE',  ( 1.326762908760390423E-13, -4.653657836759941941E-15, 38.00000000000000000 ) ) ;
#185 = ADVANCED_FACE ( 'NONE', ( #54 ), #166, .F. ) ;
#186 = CARTESIAN_POINT ( 'NONE',  ( 8.379555213223518475E-15, 1.124819836996386637E-32, 2.399999999999999911 ) ) ;
#187 = SECURITY_CLASSIFICATION ( '', '', #30 ) ;
#188 = DIRECTION ( 'NONE',  ( 0.0000000000000000000, 1.000000000000000000, 0.0000000000000000000 ) ) ;
#189 = ADVANCED_BREP_SHAPE_REPRESENTATION ( '35248', ( #151, #233, #182 ), #117 ) ;
#190 = PLANE ( 'NONE',  #162 ) ;
#191 = ADVANCED_FACE ( 'NONE', ( #218 ), #190, .F. ) ;
#192 = CARTESIAN_POINT ( 'NONE',  ( 0.0000000000000000000, 0.0000000000000000000, 0.0000000000000000000 ) ) ;
#193 = DATE_AND_TIME ( #135, #165 ) ;
#194 = VERTEX_POINT ( 'NONE', #175 ) ;
#195 = COORDINATED_UNIVERSAL_TIME_OFFSET ( 1, 0, .AHEAD. ) ;
#196 = CIRCLE ( 'NONE', #219, 1.199999999999995515 ) ;
#197 = CALENDAR_DATE ( 2021, 1, 11 ) ;
#198 = CIRCLE ( 'NONE', #91, 0.5999999999999997558 ) ;
#199 = CALENDAR_DATE ( 2021, 1, 11 ) ;
#200 = ORIENTED_EDGE ( 'NONE', *, *, #82, .T. ) ;
#201 = EDGE_CURVE ( 'NONE', #84, #84, #37, .T. ) ;
#202 = ORIENTED_EDGE ( 'NONE', *, *, #201, .T. ) ;
#203 = ORIENTED_EDGE ( 'NONE', *, *, #149, .F. ) ;
#204 = CYLINDRICAL_SURFACE ( 'NONE', #122, 1.499999999999993783 ) ;
#205 = DIRECTION ( 'NONE',  ( -3.491481338843133355E-15, 1.224646799147353207E-16, -1.000000000000000000 ) ) ;
#206 = DIRECTION ( 'NONE',  ( 3.491481338843133355E-15, -1.224646799147353207E-16, 1.000000000000000000 ) ) ;
#207 = FACE_BOUND ( 'NONE', #11, .T. ) ;
#208 = DESIGN_CONTEXT ( 'detailed design', #104, 'design' ) ;
#209 = DIRECTION ( 'NONE',  ( -4.275831445896958607E-31, -1.000000000000000000, -1.224646799147353207E-16 ) ) ;
#210 = AXIS2_PLACEMENT_3D ( 'NONE', #115, #131, #128 ) ;
#211 = CARTESIAN_POINT ( 'NONE',  ( 8.379555213223516897E-15, -0.6000000000000000888, 2.399999999999999467 ) ) ;
#212 = VERTEX_POINT ( 'NONE', #48 ) ;
#213 = APPLICATION_PROTOCOL_DEFINITION ( 'international standard', 'config_control_design', 1994, #214 ) ;
#214 = APPLICATION_CONTEXT ( 'configuration controlled 3d designs of mechanical parts and assemblies' ) ;
#215 = CARTESIAN_POINT ( 'NONE',  ( 1.018687894544877643E-14, -0.6681483474218604668, 2.917638090205028512 ) ) ;
#216 = ADVANCED_FACE ( 'NONE', ( #76, #169 ), #204, .T. ) ;
#217 = EDGE_LOOP ( 'NONE', ( #50 ) ) ;
#218 = FACE_OUTER_BOUND ( 'NONE', #217, .T. ) ;
#219 = AXIS2_PLACEMENT_3D ( 'NONE', #184, #2, #188 ) ;
#220 = DIRECTION ( 'NONE',  ( 3.491481338843133355E-15, -1.219242935835426903E-16, 1.000000000000000000 ) ) ;
#221 = DIRECTION ( 'NONE',  ( 3.491481338843133355E-15, -1.219242935835426903E-16, 1.000000000000000000 ) ) ;
#222 = DIRECTION ( 'NONE',  ( -4.275831445896958607E-31, -1.000000000000000000, -1.224646799147353207E-16 ) ) ;
#223 = AXIS2_PLACEMENT_3D ( 'NONE', #98, #114, #113 ) ;
#224 = APPROVAL_PERSON_ORGANIZATION ( #25, #241, #102 ) ;
#225 = FACE_OUTER_BOUND ( 'NONE', #141, .T. ) ;
#226 = UNCERTAINTY_MEASURE_WITH_UNIT (LENGTH_MEASURE( 1.000000000000000082E-05 ), #156, 'distance_accuracy_value', 'NONE');
#227 = PERSON_AND_ORGANIZATION_ROLE ( 'design_owner' ) ;
#228 = EDGE_CURVE ( 'NONE', #10, #10, #121, .T. ) ;
#229 = PRODUCT_RELATED_PRODUCT_CATEGORY ( 'detail', '', ( #67 ) ) ;
#230 = APPROVAL_STATUS ( 'not_yet_approved' ) ;
#231 = COORDINATED_UNIVERSAL_TIME_OFFSET ( 1, 0, .AHEAD. ) ;
#232 =( NAMED_UNIT ( * ) SI_UNIT ( $, .STERADIAN. ) SOLID_ANGLE_UNIT ( ) );
#233 = MANIFOLD_SOLID_BREP ( 'Corps-Déplacer/Copier1[2]', #148 ) ;
#234 = PERSON ( 'UNSPECIFIED', 'UNSPECIFIED', 'UNSPECIFIED', ('UNSPECIFIED'), ('UNSPECIFIED'), ('UNSPECIFIED') ) ;
#235 = PERSON_AND_ORGANIZATION ( #234, #5 ) ;
#236 = PERSON_AND_ORGANIZATION_ROLE ( 'classification_officer' ) ;
#237 = EDGE_LOOP ( 'NONE', ( #16 ) ) ;
#238 = APPROVAL_PERSON_ORGANIZATION ( #116, #157, #159 ) ;
#239 = EDGE_CURVE ( 'NONE', #212, #212, #153, .T. ) ;
#240 = APPROVAL_ROLE ( '' ) ;
#241 = APPROVAL ( #230, 'UNSPECIFIED' ) ;
#242 = ORIENTED_EDGE ( 'NONE', *, *, #149, .T. ) ;
#243 = EDGE_LOOP ( 'NONE', ( #203 ) ) ;
ENDSEC;
END-ISO-10303-21;
